ISO-10303-21;
HEADER;
FILE_DESCRIPTION (( 'STEP AP203' ),
    '1' );
FILE_NAME ('sone3D.STEP',
    '2015-08-11T11:30:35',
    ( '' ),
    ( '' ),
    'SwSTEP 2.0',
    'SolidWorks 2012',
    '' );
FILE_SCHEMA (( 'CONFIG_CONTROL_DESIGN' ));
ENDSEC;

DATA;
#1 = UNCERTAINTY_MEASURE_WITH_UNIT (LENGTH_MEASURE( 1.000000000000000100E-005 ), #152, 'distance_accuracy_value', 'NONE');
#2 = PERSON ( 'UNSPECIFIED', 'UNSPECIFIED', 'UNSPECIFIED', ('UNSPECIFIED'), ('UNSPECIFIED'), ('UNSPECIFIED') ) ;
#3 = ADVANCED_BREP_SHAPE_REPRESENTATION ( 'sone3D', ( #93, #4 ), #91 ) ;
#4 = AXIS2_PLACEMENT_3D ( 'NONE', #141, #149, #139 ) ;
#5 = COORDINATED_UNIVERSAL_TIME_OFFSET ( 9, 0, .AHEAD. ) ;
#6 = AXIS2_PLACEMENT_3D ( 'NONE', #233, #232, #227 ) ;
#7 = CALENDAR_DATE ( 2015, 11, 8 ) ;
#8 = AXIS2_PLACEMENT_3D ( 'NONE', #174, #169, #168 ) ;
#9 = VECTOR ( 'NONE', #239, 1000.000000000000000 ) ;
#10 = SECURITY_CLASSIFICATION ( '', '', #119 ) ;
#11 = COORDINATED_UNIVERSAL_TIME_OFFSET ( 9, 0, .AHEAD. ) ;
#12 = CC_DESIGN_APPROVAL ( #57, ( #10 ) ) ;
#13 = VECTOR ( 'NONE', #216, 1000.000000000000000 ) ;
#14 = AXIS2_PLACEMENT_3D ( 'NONE', #207, #165, #208 ) ;
#15 = VECTOR ( 'NONE', #188, 1000.000000000000000 ) ;
#16 = CLOSED_SHELL ( 'NONE', ( #82, #83, #73, #79, #84, #72 ) ) ;
#17 = CALENDAR_DATE ( 2015, 11, 8 ) ;
#18 = AXIS2_PLACEMENT_3D ( 'NONE', #163, #218, #171 ) ;
#19 = AXIS2_PLACEMENT_3D ( 'NONE', #203, #154, #106 ) ;
#20 = CALENDAR_DATE ( 2015, 11, 8 ) ;
#21 = FACE_OUTER_BOUND ( 'NONE', #181, .T. ) ;
#22 = AXIS2_PLACEMENT_3D ( 'NONE', #167, #178, #201 ) ;
#23 = APPROVAL_PERSON_ORGANIZATION ( #123, #57, #135 ) ;
#24 = VECTOR ( 'NONE', #190, 1000.000000000000000 ) ;
#25 = APPROVAL_PERSON_ORGANIZATION ( #111, #62, #130 ) ;
#26 = CALENDAR_DATE ( 2015, 11, 8 ) ;
#27 = FACE_OUTER_BOUND ( 'NONE', #187, .T. ) ;
#28 = FACE_OUTER_BOUND ( 'NONE', #183, .T. ) ;
#29 = COORDINATED_UNIVERSAL_TIME_OFFSET ( 9, 0, .AHEAD. ) ;
#30 = FACE_OUTER_BOUND ( 'NONE', #191, .T. ) ;
#31 = CC_DESIGN_APPROVAL ( #62, ( #86 ) ) ;
#32 = FACE_OUTER_BOUND ( 'NONE', #185, .T. ) ;
#33 = ORGANIZATION ( 'UNSPECIFIED', 'UNSPECIFIED', '' ) ;
#34 = VECTOR ( 'NONE', #156, 1000.000000000000000 ) ;
#35 = VECTOR ( 'NONE', #100, 1000.000000000000000 ) ;
#36 = CC_DESIGN_SECURITY_CLASSIFICATION ( #10, ( #43 ) ) ;
#37 = CYLINDRICAL_SURFACE ( 'NONE', #22, 5.499999999999999100 ) ;
#38 = AXIS2_PLACEMENT_3D ( 'NONE', #105, #104, #103 ) ;
#39 = VECTOR ( 'NONE', #186, 1000.000000000000000 ) ;
#40 = VECTOR ( 'NONE', #108, 1000.000000000000000 ) ;
#41 = COORDINATED_UNIVERSAL_TIME_OFFSET ( 9, 0, .AHEAD. ) ;
#42 = CC_DESIGN_APPROVAL ( #51, ( #43 ) ) ;
#43 = PRODUCT_DEFINITION_FORMATION_WITH_SPECIFIED_SOURCE ( 'ANY', '', #88, .NOT_KNOWN. ) ;
#44 = COORDINATED_UNIVERSAL_TIME_OFFSET ( 9, 0, .AHEAD. ) ;
#45 = APPROVAL_PERSON_ORGANIZATION ( #147, #51, #145 ) ;
#46 = AXIS2_PLACEMENT_3D ( 'NONE', #166, #164, #172 ) ;
#47 = VECTOR ( 'NONE', #176, 1000.000000000000000 ) ;
#48 = CALENDAR_DATE ( 2015, 11, 8 ) ;
#49 = VECTOR ( 'NONE', #180, 1000.000000000000000 ) ;
#50 = FACE_OUTER_BOUND ( 'NONE', #182, .T. ) ;
#51 = APPROVAL ( #144, 'UNSPECIFIED' ) ;
#52 = CC_DESIGN_DATE_AND_TIME_ASSIGNMENT ( #129, #148, ( #86 ) ) ;
#53 = LOCAL_TIME ( 20, 30, 35.00000000000000000, #5 ) ;
#54 = CC_DESIGN_PERSON_AND_ORGANIZATION_ASSIGNMENT ( #132, #127, ( #86 ) ) ;
#55 = LOCAL_TIME ( 20, 30, 35.00000000000000000, #11 ) ;
#56 = EDGE_CURVE ( 'NONE', #197, #193, #173, .T. ) ;
#57 = APPROVAL ( #122, 'UNSPECIFIED' ) ;
#58 = CC_DESIGN_PERSON_AND_ORGANIZATION_ASSIGNMENT ( #133, #134, ( #88 ) ) ;
#59 = LOCAL_TIME ( 20, 30, 35.00000000000000000, #29 ) ;
#60 = CC_DESIGN_DATE_AND_TIME_ASSIGNMENT ( #121, #120, ( #10 ) ) ;
#61 = LOCAL_TIME ( 20, 30, 35.00000000000000000, #44 ) ;
#62 = APPROVAL ( #128, 'UNSPECIFIED' ) ;
#63 = PRODUCT_RELATED_PRODUCT_CATEGORY ( 'detail', '', ( #88 ) ) ;
#64 = CC_DESIGN_PERSON_AND_ORGANIZATION_ASSIGNMENT ( #125, #124, ( #43 ) ) ;
#65 = LOCAL_TIME ( 20, 30, 35.00000000000000000, #41 ) ;
#66 = EDGE_CURVE ( 'NONE', #195, #199, #220, .T. ) ;
#67 = CC_DESIGN_PERSON_AND_ORGANIZATION_ASSIGNMENT ( #118, #117, ( #10 ) ) ;
#68 = CIRCLE ( 'NONE', #8, 5.499999999999999100 ) ;
#69 = EDGE_CURVE ( 'NONE', #202, #196, #236, .T. ) ;
#70 = EDGE_CURVE ( 'NONE', #202, #197, #189, .T. ) ;
#71 = EDGE_CURVE ( 'NONE', #197, #194, #158, .T. ) ;
#72 = ADVANCED_FACE ( 'NONE', ( #28 ), #219, .F. ) ;
#73 = ADVANCED_FACE ( 'NONE', ( #21 ), #160, .F. ) ;
#74 = EDGE_CURVE ( 'NONE', #194, #195, #68, .T. ) ;
#75 = EDGE_CURVE ( 'NONE', #194, #192, #155, .T. ) ;
#76 = EDGE_CURVE ( 'NONE', #196, #193, #238, .T. ) ;
#77 = EDGE_CURVE ( 'NONE', #195, #202, #179, .T. ) ;
#78 = CIRCLE ( 'NONE', #14, 5.499999999999999100 ) ;
#79 = ADVANCED_FACE ( 'NONE', ( #27 ), #37, .T. ) ;
#80 = CC_DESIGN_PERSON_AND_ORGANIZATION_ASSIGNMENT ( #126, #116, ( #43 ) ) ;
#81 = EDGE_CURVE ( 'NONE', #192, #199, #78, .T. ) ;
#82 = ADVANCED_FACE ( 'NONE', ( #32 ), #234, .F. ) ;
#83 = ADVANCED_FACE ( 'NONE', ( #30 ), #235, .F. ) ;
#84 = ADVANCED_FACE ( 'NONE', ( #50 ), #110, .T. ) ;
#85 = EDGE_CURVE ( 'NONE', #193, #192, #102, .T. ) ;
#86 = PRODUCT_DEFINITION ( 'UNKNOWN', '', #43, #94 ) ;
#87 = EDGE_CURVE ( 'NONE', #199, #196, #98, .T. ) ;
#88 = PRODUCT ( 'sone3D', 'sone3D', '', ( #146 ) ) ;
#89 = APPLICATION_CONTEXT ( 'configuration controlled 3d designs of mechanical parts and assemblies' ) ;
#90 = APPLICATION_CONTEXT ( 'configuration controlled 3d designs of mechanical parts and assemblies' ) ;
#91 =( GEOMETRIC_REPRESENTATION_CONTEXT ( 3 ) GLOBAL_UNCERTAINTY_ASSIGNED_CONTEXT ( ( #1 ) ) GLOBAL_UNIT_ASSIGNED_CONTEXT ( ( #152, #109, #143 ) ) REPRESENTATION_CONTEXT ( 'NONE', 'WORKASPACE' ) );
#92 = PRODUCT_DEFINITION_SHAPE ( 'NONE', 'NONE',  #86 ) ;
#93 = MANIFOLD_SOLID_BREP ( 'ÎÞ½ - µoµ1', #16 ) ;
#94 = DESIGN_CONTEXT ( 'detailed design', #90, 'design' ) ;
#95 = CARTESIAN_POINT ( 'NONE',  ( 5.499999999999997300, 7.500000000000003600, 500.0000000000000000 ) ) ;
#96 = CARTESIAN_POINT ( 'NONE',  ( 5.500000000000000000, 2.020667218593132700E-015, -500.0000000000000000 ) ) ;
#97 = CARTESIAN_POINT ( 'NONE',  ( -5.500000000000000000, 0.0000000000000000000, -500.0000000000000000 ) ) ;
#98 = LINE ( 'NONE', #97, #40 ) ;
#99 = CARTESIAN_POINT ( 'NONE',  ( 5.499999999999997300, 7.500000000000003600, -500.0000000000000000 ) ) ;
#100 = DIRECTION ( 'NONE',  ( -3.469446951953613700E-016, 1.000000000000000000, 0.0000000000000000000 ) ) ;
#101 = CARTESIAN_POINT ( 'NONE',  ( 5.500000000000000000, 2.020667218593132700E-015, -500.0000000000000000 ) ) ;
#102 = LINE ( 'NONE', #101, #35 ) ;
#103 = DIRECTION ( 'NONE',  ( 1.000000000000000000, 0.0000000000000000000, -0.0000000000000000000 ) ) ;
#104 = DIRECTION ( 'NONE',  ( 0.0000000000000000000, 0.0000000000000000000, 1.000000000000000000 ) ) ;
#105 = CARTESIAN_POINT ( 'NONE',  ( -1.377727649040772800E-015, 7.500000000000002700, 500.0000000000000000 ) ) ;
#106 = DIRECTION ( 'NONE',  ( -1.000000000000000000, -1.836970198721029900E-016, 0.0000000000000000000 ) ) ;
#107 = CARTESIAN_POINT ( 'NONE',  ( -5.500000000000000900, 7.500000000000003600, -500.0000000000000000 ) ) ;
#108 = DIRECTION ( 'NONE',  ( 1.156482317317871200E-016, -1.000000000000000000, -0.0000000000000000000 ) ) ;
#109 =( NAMED_UNIT ( * ) PLANE_ANGLE_UNIT ( ) SI_UNIT ( $, .RADIAN. ) );
#110 = PLANE ( 'NONE',  #38 ) ;
#111 = PERSON_AND_ORGANIZATION ( #2, #33 ) ;
#112 = CARTESIAN_POINT ( 'NONE',  ( 5.500000000000000000, 2.020667218593132700E-015, 500.0000000000000000 ) ) ;
#113 = APPROVAL_DATE_TIME ( #114, #57 ) ;
#114 = DATE_AND_TIME ( #7, #59 ) ;
#115 = APPLICATION_PROTOCOL_DEFINITION ( 'international standard', 'config_control_design', 1994, #90 ) ;
#116 = PERSON_AND_ORGANIZATION_ROLE ( 'design_supplier' ) ;
#117 = PERSON_AND_ORGANIZATION_ROLE ( 'classification_officer' ) ;
#118 = PERSON_AND_ORGANIZATION ( #2, #33 ) ;
#119 = SECURITY_CLASSIFICATION_LEVEL ( 'unclassified' ) ;
#120 = DATE_TIME_ROLE ( 'classification_date' ) ;
#121 = DATE_AND_TIME ( #48, #61 ) ;
#122 = APPROVAL_STATUS ( 'not_yet_approved' ) ;
#123 = PERSON_AND_ORGANIZATION ( #2, #33 ) ;
#124 = PERSON_AND_ORGANIZATION_ROLE ( 'creator' ) ;
#125 = PERSON_AND_ORGANIZATION ( #2, #33 ) ;
#126 = PERSON_AND_ORGANIZATION ( #2, #33 ) ;
#127 = PERSON_AND_ORGANIZATION_ROLE ( 'creator' ) ;
#128 = APPROVAL_STATUS ( 'not_yet_approved' ) ;
#129 = DATE_AND_TIME ( #26, #53 ) ;
#130 = APPROVAL_ROLE ( '' ) ;
#131 = DATE_AND_TIME ( #17, #65 ) ;
#132 = PERSON_AND_ORGANIZATION ( #2, #33 ) ;
#133 = PERSON_AND_ORGANIZATION ( #2, #33 ) ;
#134 = PERSON_AND_ORGANIZATION_ROLE ( 'design_owner' ) ;
#135 = APPROVAL_ROLE ( '' ) ;
#136 = APPROVAL_DATE_TIME ( #137, #62 ) ;
#137 = DATE_AND_TIME ( #20, #55 ) ;
#138 = CARTESIAN_POINT ( 'NONE',  ( -5.500000000000000900, 7.500000000000003600, 500.0000000000000000 ) ) ;
#139 = DIRECTION ( 'NONE',  ( 1.000000000000000000, 0.0000000000000000000, 0.0000000000000000000 ) ) ;
#140 = SHAPE_DEFINITION_REPRESENTATION ( #92, #3 ) ;
#141 = CARTESIAN_POINT ( 'NONE',  ( 0.0000000000000000000, 0.0000000000000000000, 0.0000000000000000000 ) ) ;
#142 = APPLICATION_PROTOCOL_DEFINITION ( 'international standard', 'config_control_design', 1994, #89 ) ;
#143 =( NAMED_UNIT ( * ) SI_UNIT ( $, .STERADIAN. ) SOLID_ANGLE_UNIT ( ) );
#144 = APPROVAL_STATUS ( 'not_yet_approved' ) ;
#145 = APPROVAL_ROLE ( '' ) ;
#146 = MECHANICAL_CONTEXT ( 'NONE', #89, 'mechanical' ) ;
#147 = PERSON_AND_ORGANIZATION ( #2, #33 ) ;
#148 = DATE_TIME_ROLE ( 'creation_date' ) ;
#149 = DIRECTION ( 'NONE',  ( 0.0000000000000000000, 0.0000000000000000000, 1.000000000000000000 ) ) ;
#150 = CARTESIAN_POINT ( 'NONE',  ( -5.500000000000000000, 0.0000000000000000000, -500.0000000000000000 ) ) ;
#151 = APPROVAL_DATE_TIME ( #131, #51 ) ;
#152 =( LENGTH_UNIT ( ) NAMED_UNIT ( * ) SI_UNIT ( .MILLI., .METRE. ) );
#153 = CARTESIAN_POINT ( 'NONE',  ( -5.500000000000000000, 0.0000000000000000000, 500.0000000000000000 ) ) ;
#154 = DIRECTION ( 'NONE',  ( -1.836970198721029900E-016, 1.000000000000000000, 0.0000000000000000000 ) ) ;
#155 = LINE ( 'NONE', #175, #49 ) ;
#156 = DIRECTION ( 'NONE',  ( 1.156482317317871200E-016, -1.000000000000000000, -0.0000000000000000000 ) ) ;
#157 = ORIENTED_EDGE ( 'NONE', *, *, #71, .T. ) ;
#158 = LINE ( 'NONE', #162, #24 ) ;
#159 = ORIENTED_EDGE ( 'NONE', *, *, #87, .F. ) ;
#160 = PLANE ( 'NONE',  #18 ) ;
#161 = CARTESIAN_POINT ( 'NONE',  ( -5.500000000000000000, 0.0000000000000000000, 500.0000000000000000 ) ) ;
#162 = CARTESIAN_POINT ( 'NONE',  ( 5.500000000000000000, 2.020667218593132700E-015, 500.0000000000000000 ) ) ;
#163 = CARTESIAN_POINT ( 'NONE',  ( 5.500000000000000000, 2.020667218593132700E-015, 500.0000000000000000 ) ) ;
#164 = DIRECTION ( 'NONE',  ( 0.0000000000000000000, 0.0000000000000000000, 1.000000000000000000 ) ) ;
#165 = DIRECTION ( 'NONE',  ( 0.0000000000000000000, 0.0000000000000000000, 1.000000000000000000 ) ) ;
#166 = CARTESIAN_POINT ( 'NONE',  ( -1.377727649040772800E-015, 7.500000000000002700, -500.0000000000000000 ) ) ;
#167 = CARTESIAN_POINT ( 'NONE',  ( -1.377727649040772800E-015, 7.500000000000002700, 500.0000000000000000 ) ) ;
#168 = DIRECTION ( 'NONE',  ( 1.000000000000000000, 0.0000000000000000000, 0.0000000000000000000 ) ) ;
#169 = DIRECTION ( 'NONE',  ( 0.0000000000000000000, 0.0000000000000000000, 1.000000000000000000 ) ) ;
#170 = CARTESIAN_POINT ( 'NONE',  ( -5.500000000000000000, 0.0000000000000000000, 500.0000000000000000 ) ) ;
#171 = DIRECTION ( 'NONE',  ( 3.469446951953613700E-016, -1.000000000000000000, 0.0000000000000000000 ) ) ;
#172 = DIRECTION ( 'NONE',  ( 1.000000000000000000, 0.0000000000000000000, -0.0000000000000000000 ) ) ;
#173 = LINE ( 'NONE', #184, #47 ) ;
#174 = CARTESIAN_POINT ( 'NONE',  ( -1.377727649040772800E-015, 7.500000000000002700, 500.0000000000000000 ) ) ;
#175 = CARTESIAN_POINT ( 'NONE',  ( 5.499999999999997300, 7.500000000000003600, 500.0000000000000000 ) ) ;
#176 = DIRECTION ( 'NONE',  ( -0.0000000000000000000, -0.0000000000000000000, -1.000000000000000000 ) ) ;
#177 = ORIENTED_EDGE ( 'NONE', *, *, #76, .F. ) ;
#178 = DIRECTION ( 'NONE',  ( -0.0000000000000000000, -0.0000000000000000000, -1.000000000000000000 ) ) ;
#179 = LINE ( 'NONE', #200, #34 ) ;
#180 = DIRECTION ( 'NONE',  ( -0.0000000000000000000, -0.0000000000000000000, -1.000000000000000000 ) ) ;
#181 = EDGE_LOOP ( 'NONE', ( #205, #221, #222, #214 ) ) ;
#182 = EDGE_LOOP ( 'NONE', ( #212, #231, #157, #209 ) ) ;
#183 = EDGE_LOOP ( 'NONE', ( #159, #229, #211, #177 ) ) ;
#184 = CARTESIAN_POINT ( 'NONE',  ( 5.500000000000000000, 2.020667218593132700E-015, 500.0000000000000000 ) ) ;
#185 = EDGE_LOOP ( 'NONE', ( #213, #206, #228, #224 ) ) ;
#186 = DIRECTION ( 'NONE',  ( -0.0000000000000000000, -0.0000000000000000000, -1.000000000000000000 ) ) ;
#187 = EDGE_LOOP ( 'NONE', ( #215, #226, #225, #210 ) ) ;
#188 = DIRECTION ( 'NONE',  ( 1.000000000000000000, 1.836970198721029900E-016, 0.0000000000000000000 ) ) ;
#189 = LINE ( 'NONE', #170, #15 ) ;
#190 = DIRECTION ( 'NONE',  ( -3.469446951953613700E-016, 1.000000000000000000, 0.0000000000000000000 ) ) ;
#191 = EDGE_LOOP ( 'NONE', ( #230, #223, #237, #204 ) ) ;
#192 = VERTEX_POINT ( 'NONE', #99 ) ;
#193 = VERTEX_POINT ( 'NONE', #96 ) ;
#194 = VERTEX_POINT ( 'NONE', #95 ) ;
#195 = VERTEX_POINT ( 'NONE', #138 ) ;
#196 = VERTEX_POINT ( 'NONE', #150 ) ;
#197 = VERTEX_POINT ( 'NONE', #112 ) ;
#198 = CARTESIAN_POINT ( 'NONE',  ( -5.500000000000000000, 0.0000000000000000000, -500.0000000000000000 ) ) ;
#199 = VERTEX_POINT ( 'NONE', #107 ) ;
#200 = CARTESIAN_POINT ( 'NONE',  ( -5.500000000000000000, 0.0000000000000000000, 500.0000000000000000 ) ) ;
#201 = DIRECTION ( 'NONE',  ( -1.000000000000000000, 0.0000000000000000000, 0.0000000000000000000 ) ) ;
#202 = VERTEX_POINT ( 'NONE', #153 ) ;
#203 = CARTESIAN_POINT ( 'NONE',  ( -5.500000000000000000, 0.0000000000000000000, 500.0000000000000000 ) ) ;
#204 = ORIENTED_EDGE ( 'NONE', *, *, #69, .T. ) ;
#205 = ORIENTED_EDGE ( 'NONE', *, *, #85, .T. ) ;
#206 = ORIENTED_EDGE ( 'NONE', *, *, #69, .F. ) ;
#207 = CARTESIAN_POINT ( 'NONE',  ( -1.377727649040772800E-015, 7.500000000000002700, -500.0000000000000000 ) ) ;
#208 = DIRECTION ( 'NONE',  ( 1.000000000000000000, 0.0000000000000000000, 0.0000000000000000000 ) ) ;
#209 = ORIENTED_EDGE ( 'NONE', *, *, #74, .T. ) ;
#210 = ORIENTED_EDGE ( 'NONE', *, *, #75, .T. ) ;
#211 = ORIENTED_EDGE ( 'NONE', *, *, #85, .F. ) ;
#212 = ORIENTED_EDGE ( 'NONE', *, *, #77, .T. ) ;
#213 = ORIENTED_EDGE ( 'NONE', *, *, #87, .T. ) ;
#214 = ORIENTED_EDGE ( 'NONE', *, *, #56, .T. ) ;
#215 = ORIENTED_EDGE ( 'NONE', *, *, #81, .T. ) ;
#216 = DIRECTION ( 'NONE',  ( -0.0000000000000000000, -0.0000000000000000000, -1.000000000000000000 ) ) ;
#217 = CARTESIAN_POINT ( 'NONE',  ( -5.500000000000000900, 7.500000000000003600, 500.0000000000000000 ) ) ;
#218 = DIRECTION ( 'NONE',  ( -1.000000000000000000, -3.469446951953613700E-016, 0.0000000000000000000 ) ) ;
#219 = PLANE ( 'NONE',  #46 ) ;
#220 = LINE ( 'NONE', #217, #13 ) ;
#221 = ORIENTED_EDGE ( 'NONE', *, *, #75, .F. ) ;
#222 = ORIENTED_EDGE ( 'NONE', *, *, #71, .F. ) ;
#223 = ORIENTED_EDGE ( 'NONE', *, *, #56, .F. ) ;
#224 = ORIENTED_EDGE ( 'NONE', *, *, #66, .T. ) ;
#225 = ORIENTED_EDGE ( 'NONE', *, *, #74, .F. ) ;
#226 = ORIENTED_EDGE ( 'NONE', *, *, #66, .F. ) ;
#227 = DIRECTION ( 'NONE',  ( -1.156482317317871200E-016, 1.000000000000000000, 0.0000000000000000000 ) ) ;
#228 = ORIENTED_EDGE ( 'NONE', *, *, #77, .F. ) ;
#229 = ORIENTED_EDGE ( 'NONE', *, *, #81, .F. ) ;
#230 = ORIENTED_EDGE ( 'NONE', *, *, #76, .T. ) ;
#231 = ORIENTED_EDGE ( 'NONE', *, *, #70, .T. ) ;
#232 = DIRECTION ( 'NONE',  ( 1.000000000000000000, 1.156482317317871200E-016, -0.0000000000000000000 ) ) ;
#233 = CARTESIAN_POINT ( 'NONE',  ( -5.500000000000000000, 0.0000000000000000000, 500.0000000000000000 ) ) ;
#234 = PLANE ( 'NONE',  #6 ) ;
#235 = PLANE ( 'NONE',  #19 ) ;
#236 = LINE ( 'NONE', #161, #39 ) ;
#237 = ORIENTED_EDGE ( 'NONE', *, *, #70, .F. ) ;
#238 = LINE ( 'NONE', #198, #9 ) ;
#239 = DIRECTION ( 'NONE',  ( 1.000000000000000000, 1.836970198721029900E-016, 0.0000000000000000000 ) ) ;
ENDSEC;
END-ISO-10303-21;
