ISO-10303-21;
HEADER;
FILE_DESCRIPTION (( 'STEP AP203' ),
    '1' );
FILE_NAME ('sone3D.STEP',
    '2015-08-11T11:29:42',
    ( '' ),
    ( '' ),
    'SwSTEP 2.0',
    'SolidWorks 2012',
    '' );
FILE_SCHEMA (( 'CONFIG_CONTROL_DESIGN' ));
ENDSEC;

DATA;
#1 = UNCERTAINTY_MEASURE_WITH_UNIT (LENGTH_MEASURE( 1.000000000000000100E-005 ), #120, 'distance_accuracy_value', 'NONE');
#2 = ADVANCED_BREP_SHAPE_REPRESENTATION ( 'sone3D', ( #94, #5 ), #91 ) ;
#3 = PERSON ( 'UNSPECIFIED', 'UNSPECIFIED', 'UNSPECIFIED', ('UNSPECIFIED'), ('UNSPECIFIED'), ('UNSPECIFIED') ) ;
#4 = CYLINDRICAL_SURFACE ( 'NONE', #34, 4.499999999999997300 ) ;
#5 = AXIS2_PLACEMENT_3D ( 'NONE', #113, #112, #111 ) ;
#6 = CALENDAR_DATE ( 2015, 11, 8 ) ;
#7 = VECTOR ( 'NONE', #144, 1000.000000000000000 ) ;
#8 = VECTOR ( 'NONE', #191, 1000.000000000000000 ) ;
#9 = ORGANIZATION ( 'UNSPECIFIED', 'UNSPECIFIED', '' ) ;
#10 = FACE_OUTER_BOUND ( 'NONE', #195, .T. ) ;
#11 = FACE_OUTER_BOUND ( 'NONE', #204, .T. ) ;
#12 = VECTOR ( 'NONE', #181, 1000.000000000000000 ) ;
#13 = CC_DESIGN_SECURITY_CLASSIFICATION ( #22, ( #31 ) ) ;
#14 = COORDINATED_UNIVERSAL_TIME_OFFSET ( 9, 0, .AHEAD. ) ;
#15 = COORDINATED_UNIVERSAL_TIME_OFFSET ( 9, 0, .AHEAD. ) ;
#16 = CLOSED_SHELL ( 'NONE', ( #79, #72, #76, #84, #64, #58 ) ) ;
#17 = VECTOR ( 'NONE', #236, 1000.000000000000000 ) ;
#18 = VECTOR ( 'NONE', #187, 1000.000000000000000 ) ;
#19 = AXIS2_PLACEMENT_3D ( 'NONE', #157, #188, #192 ) ;
#20 = FACE_OUTER_BOUND ( 'NONE', #202, .T. ) ;
#21 = AXIS2_PLACEMENT_3D ( 'NONE', #233, #232, #235 ) ;
#22 = SECURITY_CLASSIFICATION ( '', '', #139 ) ;
#23 = AXIS2_PLACEMENT_3D ( 'NONE', #193, #158, #156 ) ;
#24 = VECTOR ( 'NONE', #175, 1000.000000000000000 ) ;
#25 = FACE_OUTER_BOUND ( 'NONE', #203, .T. ) ;
#26 = CALENDAR_DATE ( 2015, 11, 8 ) ;
#27 = CALENDAR_DATE ( 2015, 11, 8 ) ;
#28 = APPROVAL_PERSON_ORGANIZATION ( #126, #78, #133 ) ;
#29 = AXIS2_PLACEMENT_3D ( 'NONE', #173, #162, #161 ) ;
#30 = APPROVAL_PERSON_ORGANIZATION ( #105, #59, #103 ) ;
#31 = PRODUCT_DEFINITION_FORMATION_WITH_SPECIFIED_SOURCE ( 'ANY', '', #88, .NOT_KNOWN. ) ;
#32 = CC_DESIGN_APPROVAL ( #62, ( #31 ) ) ;
#33 = CALENDAR_DATE ( 2015, 11, 8 ) ;
#34 = AXIS2_PLACEMENT_3D ( 'NONE', #237, #185, #180 ) ;
#35 = AXIS2_PLACEMENT_3D ( 'NONE', #167, #168, #165 ) ;
#36 = COORDINATED_UNIVERSAL_TIME_OFFSET ( 9, 0, .AHEAD. ) ;
#37 = FACE_OUTER_BOUND ( 'NONE', #206, .T. ) ;
#38 = VECTOR ( 'NONE', #183, 1000.000000000000000 ) ;
#39 = FACE_OUTER_BOUND ( 'NONE', #209, .T. ) ;
#40 = VECTOR ( 'NONE', #160, 1000.000000000000000 ) ;
#41 = COORDINATED_UNIVERSAL_TIME_OFFSET ( 9, 0, .AHEAD. ) ;
#42 = APPROVAL_PERSON_ORGANIZATION ( #96, #62, #95 ) ;
#43 = CC_DESIGN_APPROVAL ( #78, ( #22 ) ) ;
#44 = CC_DESIGN_APPROVAL ( #59, ( #65 ) ) ;
#45 = VECTOR ( 'NONE', #231, 1000.000000000000000 ) ;
#46 = COORDINATED_UNIVERSAL_TIME_OFFSET ( 9, 0, .AHEAD. ) ;
#47 = AXIS2_PLACEMENT_3D ( 'NONE', #176, #219, #182 ) ;
#48 = VECTOR ( 'NONE', #149, 1000.000000000000000 ) ;
#49 = AXIS2_PLACEMENT_3D ( 'NONE', #200, #214, #201 ) ;
#50 = CALENDAR_DATE ( 2015, 11, 8 ) ;
#51 = CIRCLE ( 'NONE', #47, 4.499999999999997300 ) ;
#52 = CC_DESIGN_PERSON_AND_ORGANIZATION_ASSIGNMENT ( #140, #142, ( #31 ) ) ;
#53 = CC_DESIGN_PERSON_AND_ORGANIZATION_ASSIGNMENT ( #124, #132, ( #31 ) ) ;
#54 = LOCAL_TIME ( 20, 29, 42.00000000000000000, #14 ) ;
#55 = CC_DESIGN_PERSON_AND_ORGANIZATION_ASSIGNMENT ( #100, #99, ( #65 ) ) ;
#56 = LOCAL_TIME ( 20, 29, 42.00000000000000000, #36 ) ;
#57 = LOCAL_TIME ( 20, 29, 42.00000000000000000, #46 ) ;
#58 = ADVANCED_FACE ( 'NONE', ( #20 ), #199, .F. ) ;
#59 = APPROVAL ( #104, 'UNSPECIFIED' ) ;
#60 = LOCAL_TIME ( 20, 29, 42.00000000000000000, #41 ) ;
#61 = CC_DESIGN_DATE_AND_TIME_ASSIGNMENT ( #98, #97, ( #65 ) ) ;
#62 = APPROVAL ( #131, 'UNSPECIFIED' ) ;
#63 = EDGE_CURVE ( 'NONE', #225, #155, #222, .T. ) ;
#64 = ADVANCED_FACE ( 'NONE', ( #10 ), #211, .T. ) ;
#65 = PRODUCT_DEFINITION ( 'UNKNOWN', '', #31, #92 ) ;
#66 = CC_DESIGN_PERSON_AND_ORGANIZATION_ASSIGNMENT ( #137, #138, ( #22 ) ) ;
#67 = EDGE_CURVE ( 'NONE', #172, #197, #163, .T. ) ;
#68 = PRODUCT_RELATED_PRODUCT_CATEGORY ( 'detail', '', ( #88 ) ) ;
#69 = LOCAL_TIME ( 20, 29, 42.00000000000000000, #15 ) ;
#70 = CIRCLE ( 'NONE', #35, 4.499999999999997300 ) ;
#71 = EDGE_CURVE ( 'NONE', #147, #172, #151, .T. ) ;
#72 = ADVANCED_FACE ( 'NONE', ( #37 ), #169, .F. ) ;
#73 = EDGE_CURVE ( 'NONE', #197, #155, #234, .T. ) ;
#74 = EDGE_CURVE ( 'NONE', #155, #205, #70, .T. ) ;
#75 = CC_DESIGN_PERSON_AND_ORGANIZATION_ASSIGNMENT ( #108, #107, ( #88 ) ) ;
#76 = ADVANCED_FACE ( 'NONE', ( #39 ), #166, .F. ) ;
#77 = CC_DESIGN_DATE_AND_TIME_ASSIGNMENT ( #135, #119, ( #22 ) ) ;
#78 = APPROVAL ( #129, 'UNSPECIFIED' ) ;
#79 = ADVANCED_FACE ( 'NONE', ( #11 ), #190, .F. ) ;
#80 = EDGE_CURVE ( 'NONE', #147, #154, #189, .T. ) ;
#81 = EDGE_CURVE ( 'NONE', #205, #154, #220, .T. ) ;
#82 = EDGE_CURVE ( 'NONE', #225, #186, #51, .T. ) ;
#83 = EDGE_CURVE ( 'NONE', #186, #147, #174, .T. ) ;
#84 = ADVANCED_FACE ( 'NONE', ( #25 ), #4, .T. ) ;
#85 = EDGE_CURVE ( 'NONE', #154, #197, #179, .T. ) ;
#86 = EDGE_CURVE ( 'NONE', #186, #205, #153, .T. ) ;
#87 = EDGE_CURVE ( 'NONE', #172, #225, #134, .T. ) ;
#88 = PRODUCT ( 'sone3D', 'sone3D', '', ( #109 ) ) ;
#89 = APPLICATION_CONTEXT ( 'configuration controlled 3d designs of mechanical parts and assemblies' ) ;
#90 = APPLICATION_CONTEXT ( 'configuration controlled 3d designs of mechanical parts and assemblies' ) ;
#91 =( GEOMETRIC_REPRESENTATION_CONTEXT ( 3 ) GLOBAL_UNCERTAINTY_ASSIGNED_CONTEXT ( ( #1 ) ) GLOBAL_UNIT_ASSIGNED_CONTEXT ( ( #120, #118, #115 ) ) REPRESENTATION_CONTEXT ( 'NONE', 'WORKASPACE' ) );
#92 = DESIGN_CONTEXT ( 'detailed design', #90, 'design' ) ;
#93 = PRODUCT_DEFINITION_SHAPE ( 'NONE', 'NONE',  #65 ) ;
#94 = MANIFOLD_SOLID_BREP ( 'ÎÞ½ - µoµ1', #16 ) ;
#95 = APPROVAL_ROLE ( '' ) ;
#96 = PERSON_AND_ORGANIZATION ( #3, #9 ) ;
#97 = DATE_TIME_ROLE ( 'creation_date' ) ;
#98 = DATE_AND_TIME ( #6, #60 ) ;
#99 = PERSON_AND_ORGANIZATION_ROLE ( 'creator' ) ;
#100 = PERSON_AND_ORGANIZATION ( #3, #9 ) ;
#101 = APPROVAL_DATE_TIME ( #102, #59 ) ;
#102 = DATE_AND_TIME ( #26, #56 ) ;
#103 = APPROVAL_ROLE ( '' ) ;
#104 = APPROVAL_STATUS ( 'not_yet_approved' ) ;
#105 = PERSON_AND_ORGANIZATION ( #3, #9 ) ;
#106 = APPLICATION_PROTOCOL_DEFINITION ( 'international standard', 'config_control_design', 1994, #90 ) ;
#107 = PERSON_AND_ORGANIZATION_ROLE ( 'design_owner' ) ;
#108 = PERSON_AND_ORGANIZATION ( #3, #9 ) ;
#109 = MECHANICAL_CONTEXT ( 'NONE', #89, 'mechanical' ) ;
#110 = SHAPE_DEFINITION_REPRESENTATION ( #93, #2 ) ;
#111 = DIRECTION ( 'NONE',  ( 1.000000000000000000, 0.0000000000000000000, 0.0000000000000000000 ) ) ;
#112 = DIRECTION ( 'NONE',  ( 0.0000000000000000000, 0.0000000000000000000, 1.000000000000000000 ) ) ;
#113 = CARTESIAN_POINT ( 'NONE',  ( 0.0000000000000000000, 0.0000000000000000000, 0.0000000000000000000 ) ) ;
#114 = APPLICATION_PROTOCOL_DEFINITION ( 'international standard', 'config_control_design', 1994, #89 ) ;
#115 =( NAMED_UNIT ( * ) SI_UNIT ( $, .STERADIAN. ) SOLID_ANGLE_UNIT ( ) );
#116 = DATE_AND_TIME ( #27, #54 ) ;
#117 = APPROVAL_DATE_TIME ( #116, #62 ) ;
#118 =( NAMED_UNIT ( * ) PLANE_ANGLE_UNIT ( ) SI_UNIT ( $, .RADIAN. ) );
#119 = DATE_TIME_ROLE ( 'classification_date' ) ;
#120 =( LENGTH_UNIT ( ) NAMED_UNIT ( * ) SI_UNIT ( .MILLI., .METRE. ) );
#121 = CARTESIAN_POINT ( 'NONE',  ( 4.499999999999995600, 7.500000000000005300, 500.0000000000000000 ) ) ;
#122 = CARTESIAN_POINT ( 'NONE',  ( -4.499999999999999100, 7.500000000000003600, -500.0000000000000000 ) ) ;
#123 = CARTESIAN_POINT ( 'NONE',  ( 4.500000000000000000, 1.653273178848926700E-015, -500.0000000000000000 ) ) ;
#124 = PERSON_AND_ORGANIZATION ( #3, #9 ) ;
#125 = CARTESIAN_POINT ( 'NONE',  ( -4.499999999999999100, 7.500000000000003600, 500.0000000000000000 ) ) ;
#126 = PERSON_AND_ORGANIZATION ( #3, #9 ) ;
#127 = CARTESIAN_POINT ( 'NONE',  ( 4.500000000000000000, 1.653273178848926700E-015, 500.0000000000000000 ) ) ;
#128 = CARTESIAN_POINT ( 'NONE',  ( 4.499999999999995600, 7.500000000000005300, -500.0000000000000000 ) ) ;
#129 = APPROVAL_STATUS ( 'not_yet_approved' ) ;
#130 = CARTESIAN_POINT ( 'NONE',  ( -4.500000000000000000, 0.0000000000000000000, 500.0000000000000000 ) ) ;
#131 = APPROVAL_STATUS ( 'not_yet_approved' ) ;
#132 = PERSON_AND_ORGANIZATION_ROLE ( 'creator' ) ;
#133 = APPROVAL_ROLE ( '' ) ;
#134 = LINE ( 'NONE', #136, #7 ) ;
#135 = DATE_AND_TIME ( #33, #57 ) ;
#136 = CARTESIAN_POINT ( 'NONE',  ( 4.500000000000000000, 1.653273178848926700E-015, 500.0000000000000000 ) ) ;
#137 = PERSON_AND_ORGANIZATION ( #3, #9 ) ;
#138 = PERSON_AND_ORGANIZATION_ROLE ( 'classification_officer' ) ;
#139 = SECURITY_CLASSIFICATION_LEVEL ( 'unclassified' ) ;
#140 = PERSON_AND_ORGANIZATION ( #3, #9 ) ;
#141 = APPROVAL_DATE_TIME ( #143, #78 ) ;
#142 = PERSON_AND_ORGANIZATION_ROLE ( 'design_supplier' ) ;
#143 = DATE_AND_TIME ( #50, #69 ) ;
#144 = DIRECTION ( 'NONE',  ( -5.782411586589354700E-016, 1.000000000000000000, 0.0000000000000000000 ) ) ;
#145 = ORIENTED_EDGE ( 'NONE', *, *, #85, .F. ) ;
#146 = ORIENTED_EDGE ( 'NONE', *, *, #73, .F. ) ;
#147 = VERTEX_POINT ( 'NONE', #130 ) ;
#148 = ORIENTED_EDGE ( 'NONE', *, *, #86, .T. ) ;
#149 = DIRECTION ( 'NONE',  ( -0.0000000000000000000, -0.0000000000000000000, -1.000000000000000000 ) ) ;
#150 = CARTESIAN_POINT ( 'NONE',  ( -4.499999999999999100, 7.500000000000003600, 500.0000000000000000 ) ) ;
#151 = LINE ( 'NONE', #152, #17 ) ;
#152 = CARTESIAN_POINT ( 'NONE',  ( -4.500000000000000000, 0.0000000000000000000, 500.0000000000000000 ) ) ;
#153 = LINE ( 'NONE', #150, #48 ) ;
#154 = VERTEX_POINT ( 'NONE', #164 ) ;
#155 = VERTEX_POINT ( 'NONE', #128 ) ;
#156 = DIRECTION ( 'NONE',  ( 5.782411586589354700E-016, -1.000000000000000000, 0.0000000000000000000 ) ) ;
#157 = CARTESIAN_POINT ( 'NONE',  ( -4.500000000000000000, 0.0000000000000000000, 500.0000000000000000 ) ) ;
#158 = DIRECTION ( 'NONE',  ( -1.000000000000000000, -5.782411586589354700E-016, 0.0000000000000000000 ) ) ;
#159 = CARTESIAN_POINT ( 'NONE',  ( -4.500000000000000000, 0.0000000000000000000, 500.0000000000000000 ) ) ;
#160 = DIRECTION ( 'NONE',  ( -0.0000000000000000000, -0.0000000000000000000, -1.000000000000000000 ) ) ;
#161 = DIRECTION ( 'NONE',  ( 1.000000000000000000, 0.0000000000000000000, -0.0000000000000000000 ) ) ;
#162 = DIRECTION ( 'NONE',  ( 0.0000000000000000000, 0.0000000000000000000, 1.000000000000000000 ) ) ;
#163 = LINE ( 'NONE', #184, #40 ) ;
#164 = CARTESIAN_POINT ( 'NONE',  ( -4.500000000000000000, 0.0000000000000000000, -500.0000000000000000 ) ) ;
#165 = DIRECTION ( 'NONE',  ( 1.000000000000000000, 0.0000000000000000000, 0.0000000000000000000 ) ) ;
#166 = PLANE ( 'NONE',  #23 ) ;
#167 = CARTESIAN_POINT ( 'NONE',  ( -1.377727649040772800E-015, 7.500000000000002700, -500.0000000000000000 ) ) ;
#168 = DIRECTION ( 'NONE',  ( 0.0000000000000000000, 0.0000000000000000000, 1.000000000000000000 ) ) ;
#169 = PLANE ( 'NONE',  #21 ) ;
#170 = ORIENTED_EDGE ( 'NONE', *, *, #67, .F. ) ;
#171 = ORIENTED_EDGE ( 'NONE', *, *, #87, .T. ) ;
#172 = VERTEX_POINT ( 'NONE', #127 ) ;
#173 = CARTESIAN_POINT ( 'NONE',  ( -1.377727649040772800E-015, 7.500000000000002700, 500.0000000000000000 ) ) ;
#174 = LINE ( 'NONE', #239, #38 ) ;
#175 = DIRECTION ( 'NONE',  ( 1.000000000000000000, 1.836970198721029700E-016, 0.0000000000000000000 ) ) ;
#176 = CARTESIAN_POINT ( 'NONE',  ( -1.377727649040772800E-015, 7.500000000000002700, 500.0000000000000000 ) ) ;
#177 = CARTESIAN_POINT ( 'NONE',  ( 4.500000000000000000, 1.653273178848926700E-015, -500.0000000000000000 ) ) ;
#178 = CARTESIAN_POINT ( 'NONE',  ( -4.500000000000000000, 0.0000000000000000000, -500.0000000000000000 ) ) ;
#179 = LINE ( 'NONE', #178, #24 ) ;
#180 = DIRECTION ( 'NONE',  ( -1.000000000000000000, 0.0000000000000000000, 0.0000000000000000000 ) ) ;
#181 = DIRECTION ( 'NONE',  ( -1.156482317317871000E-016, -1.000000000000000000, -0.0000000000000000000 ) ) ;
#182 = DIRECTION ( 'NONE',  ( 1.000000000000000000, 0.0000000000000000000, 0.0000000000000000000 ) ) ;
#183 = DIRECTION ( 'NONE',  ( -1.156482317317871000E-016, -1.000000000000000000, -0.0000000000000000000 ) ) ;
#184 = CARTESIAN_POINT ( 'NONE',  ( 4.500000000000000000, 1.653273178848926700E-015, 500.0000000000000000 ) ) ;
#185 = DIRECTION ( 'NONE',  ( -0.0000000000000000000, -0.0000000000000000000, -1.000000000000000000 ) ) ;
#186 = VERTEX_POINT ( 'NONE', #125 ) ;
#187 = DIRECTION ( 'NONE',  ( -5.782411586589354700E-016, 1.000000000000000000, 0.0000000000000000000 ) ) ;
#188 = DIRECTION ( 'NONE',  ( 1.000000000000000000, -1.156482317317871000E-016, 0.0000000000000000000 ) ) ;
#189 = LINE ( 'NONE', #159, #8 ) ;
#190 = PLANE ( 'NONE',  #19 ) ;
#191 = DIRECTION ( 'NONE',  ( -0.0000000000000000000, -0.0000000000000000000, -1.000000000000000000 ) ) ;
#192 = DIRECTION ( 'NONE',  ( 1.156482317317871000E-016, 1.000000000000000000, 0.0000000000000000000 ) ) ;
#193 = CARTESIAN_POINT ( 'NONE',  ( 4.500000000000000000, 1.653273178848926700E-015, 500.0000000000000000 ) ) ;
#194 = ORIENTED_EDGE ( 'NONE', *, *, #71, .T. ) ;
#195 = EDGE_LOOP ( 'NONE', ( #216, #194, #171, #196 ) ) ;
#196 = ORIENTED_EDGE ( 'NONE', *, *, #82, .T. ) ;
#197 = VERTEX_POINT ( 'NONE', #123 ) ;
#198 = ORIENTED_EDGE ( 'NONE', *, *, #74, .F. ) ;
#199 = PLANE ( 'NONE',  #49 ) ;
#200 = CARTESIAN_POINT ( 'NONE',  ( -1.377727649040772800E-015, 7.500000000000002700, -500.0000000000000000 ) ) ;
#201 = DIRECTION ( 'NONE',  ( 1.000000000000000000, 0.0000000000000000000, -0.0000000000000000000 ) ) ;
#202 = EDGE_LOOP ( 'NONE', ( #228, #198, #146, #145 ) ) ;
#203 = EDGE_LOOP ( 'NONE', ( #224, #215, #223, #227 ) ) ;
#204 = EDGE_LOOP ( 'NONE', ( #230, #212, #207, #148 ) ) ;
#205 = VERTEX_POINT ( 'NONE', #122 ) ;
#206 = EDGE_LOOP ( 'NONE', ( #210, #170, #229, #221 ) ) ;
#207 = ORIENTED_EDGE ( 'NONE', *, *, #83, .F. ) ;
#208 = ORIENTED_EDGE ( 'NONE', *, *, #73, .T. ) ;
#209 = EDGE_LOOP ( 'NONE', ( #208, #218, #217, #226 ) ) ;
#210 = ORIENTED_EDGE ( 'NONE', *, *, #85, .T. ) ;
#211 = PLANE ( 'NONE',  #29 ) ;
#212 = ORIENTED_EDGE ( 'NONE', *, *, #80, .F. ) ;
#213 = CARTESIAN_POINT ( 'NONE',  ( 4.499999999999995600, 7.500000000000005300, 500.0000000000000000 ) ) ;
#214 = DIRECTION ( 'NONE',  ( 0.0000000000000000000, 0.0000000000000000000, 1.000000000000000000 ) ) ;
#215 = ORIENTED_EDGE ( 'NONE', *, *, #86, .F. ) ;
#216 = ORIENTED_EDGE ( 'NONE', *, *, #83, .T. ) ;
#217 = ORIENTED_EDGE ( 'NONE', *, *, #87, .F. ) ;
#218 = ORIENTED_EDGE ( 'NONE', *, *, #63, .F. ) ;
#219 = DIRECTION ( 'NONE',  ( 0.0000000000000000000, 0.0000000000000000000, 1.000000000000000000 ) ) ;
#220 = LINE ( 'NONE', #238, #12 ) ;
#221 = ORIENTED_EDGE ( 'NONE', *, *, #80, .T. ) ;
#222 = LINE ( 'NONE', #213, #45 ) ;
#223 = ORIENTED_EDGE ( 'NONE', *, *, #82, .F. ) ;
#224 = ORIENTED_EDGE ( 'NONE', *, *, #74, .T. ) ;
#225 = VERTEX_POINT ( 'NONE', #121 ) ;
#226 = ORIENTED_EDGE ( 'NONE', *, *, #67, .T. ) ;
#227 = ORIENTED_EDGE ( 'NONE', *, *, #63, .T. ) ;
#228 = ORIENTED_EDGE ( 'NONE', *, *, #81, .F. ) ;
#229 = ORIENTED_EDGE ( 'NONE', *, *, #71, .F. ) ;
#230 = ORIENTED_EDGE ( 'NONE', *, *, #81, .T. ) ;
#231 = DIRECTION ( 'NONE',  ( -0.0000000000000000000, -0.0000000000000000000, -1.000000000000000000 ) ) ;
#232 = DIRECTION ( 'NONE',  ( -1.836970198721029700E-016, 1.000000000000000000, 0.0000000000000000000 ) ) ;
#233 = CARTESIAN_POINT ( 'NONE',  ( -4.500000000000000000, 0.0000000000000000000, 500.0000000000000000 ) ) ;
#234 = LINE ( 'NONE', #177, #18 ) ;
#235 = DIRECTION ( 'NONE',  ( -1.000000000000000000, -1.836970198721029700E-016, 0.0000000000000000000 ) ) ;
#236 = DIRECTION ( 'NONE',  ( 1.000000000000000000, 1.836970198721029700E-016, 0.0000000000000000000 ) ) ;
#237 = CARTESIAN_POINT ( 'NONE',  ( -1.377727649040772800E-015, 7.500000000000002700, 500.0000000000000000 ) ) ;
#238 = CARTESIAN_POINT ( 'NONE',  ( -4.500000000000000000, 0.0000000000000000000, -500.0000000000000000 ) ) ;
#239 = CARTESIAN_POINT ( 'NONE',  ( -4.500000000000000000, 0.0000000000000000000, 500.0000000000000000 ) ) ;
ENDSEC;
END-ISO-10303-21;
