ISO-10303-21;
HEADER;
FILE_DESCRIPTION (( 'STEP AP203' ),
    '1' );
FILE_NAME ('sone3D.STEP',
    '2015-08-11T11:29:25',
    ( '' ),
    ( '' ),
    'SwSTEP 2.0',
    'SolidWorks 2012',
    '' );
FILE_SCHEMA (( 'CONFIG_CONTROL_DESIGN' ));
ENDSEC;

DATA;
#1 = UNCERTAINTY_MEASURE_WITH_UNIT (LENGTH_MEASURE( 1.000000000000000100E-005 ), #117, 'distance_accuracy_value', 'NONE');
#2 = PERSON ( 'UNSPECIFIED', 'UNSPECIFIED', 'UNSPECIFIED', ('UNSPECIFIED'), ('UNSPECIFIED'), ('UNSPECIFIED') ) ;
#3 = ADVANCED_BREP_SHAPE_REPRESENTATION ( 'sone3D', ( #92, #15 ), #91 ) ;
#4 = AXIS2_PLACEMENT_3D ( 'NONE', #163, #164, #165 ) ;
#5 = FACE_OUTER_BOUND ( 'NONE', #229, .T. ) ;
#6 = VECTOR ( 'NONE', #238, 1000.000000000000000 ) ;
#7 = COORDINATED_UNIVERSAL_TIME_OFFSET ( 9, 0, .AHEAD. ) ;
#8 = FACE_OUTER_BOUND ( 'NONE', #181, .T. ) ;
#9 = AXIS2_PLACEMENT_3D ( 'NONE', #157, #158, #159 ) ;
#10 = APPROVAL_PERSON_ORGANIZATION ( #144, #64, #130 ) ;
#11 = SECURITY_CLASSIFICATION ( '', '', #124 ) ;
#12 = FACE_OUTER_BOUND ( 'NONE', #190, .T. ) ;
#13 = COORDINATED_UNIVERSAL_TIME_OFFSET ( 9, 0, .AHEAD. ) ;
#14 = PRODUCT_DEFINITION_FORMATION_WITH_SPECIFIED_SOURCE ( 'ANY', '', #88, .NOT_KNOWN. ) ;
#15 = AXIS2_PLACEMENT_3D ( 'NONE', #132, #142, #145 ) ;
#16 = CC_DESIGN_APPROVAL ( #55, ( #11 ) ) ;
#17 = VECTOR ( 'NONE', #188, 1000.000000000000000 ) ;
#18 = CALENDAR_DATE ( 2015, 11, 8 ) ;
#19 = ORGANIZATION ( 'UNSPECIFIED', 'UNSPECIFIED', '' ) ;
#20 = CC_DESIGN_APPROVAL ( #70, ( #14 ) ) ;
#21 = VECTOR ( 'NONE', #101, 1000.000000000000000 ) ;
#22 = VECTOR ( 'NONE', #104, 1000.000000000000000 ) ;
#23 = COORDINATED_UNIVERSAL_TIME_OFFSET ( 9, 0, .AHEAD. ) ;
#24 = FACE_OUTER_BOUND ( 'NONE', #228, .T. ) ;
#25 = VECTOR ( 'NONE', #168, 1000.000000000000000 ) ;
#26 = APPROVAL_PERSON_ORGANIZATION ( #123, #70, #114 ) ;
#27 = VECTOR ( 'NONE', #108, 1000.000000000000000 ) ;
#28 = AXIS2_PLACEMENT_3D ( 'NONE', #204, #231, #230 ) ;
#29 = AXIS2_PLACEMENT_3D ( 'NONE', #111, #122, #128 ) ;
#30 = AXIS2_PLACEMENT_3D ( 'NONE', #237, #226, #170 ) ;
#31 = FACE_OUTER_BOUND ( 'NONE', #172, .T. ) ;
#32 = CALENDAR_DATE ( 2015, 11, 8 ) ;
#33 = VECTOR ( 'NONE', #171, 1000.000000000000000 ) ;
#34 = VECTOR ( 'NONE', #162, 1000.000000000000000 ) ;
#35 = VECTOR ( 'NONE', #198, 1000.000000000000000 ) ;
#36 = APPROVAL_PERSON_ORGANIZATION ( #150, #55, #120 ) ;
#37 = AXIS2_PLACEMENT_3D ( 'NONE', #235, #234, #233 ) ;
#38 = CALENDAR_DATE ( 2015, 11, 8 ) ;
#39 = CC_DESIGN_SECURITY_CLASSIFICATION ( #11, ( #14 ) ) ;
#40 = FACE_OUTER_BOUND ( 'NONE', #220, .T. ) ;
#41 = CALENDAR_DATE ( 2015, 11, 8 ) ;
#42 = CYLINDRICAL_SURFACE ( 'NONE', #29, 7.499999999999999100 ) ;
#43 = AXIS2_PLACEMENT_3D ( 'NONE', #174, #178, #177 ) ;
#44 = CALENDAR_DATE ( 2015, 11, 8 ) ;
#45 = COORDINATED_UNIVERSAL_TIME_OFFSET ( 9, 0, .AHEAD. ) ;
#46 = AXIS2_PLACEMENT_3D ( 'NONE', #201, #239, #236 ) ;
#47 = CLOSED_SHELL ( 'NONE', ( #74, #78, #77, #83, #59, #81 ) ) ;
#48 = COORDINATED_UNIVERSAL_TIME_OFFSET ( 9, 0, .AHEAD. ) ;
#49 = CC_DESIGN_APPROVAL ( #64, ( #57 ) ) ;
#50 = VECTOR ( 'NONE', #191, 1000.000000000000000 ) ;
#51 = CC_DESIGN_PERSON_AND_ORGANIZATION_ASSIGNMENT ( #116, #152, ( #14 ) ) ;
#52 = CC_DESIGN_PERSON_AND_ORGANIZATION_ASSIGNMENT ( #113, #118, ( #14 ) ) ;
#53 = LOCAL_TIME ( 20, 29, 25.00000000000000000, #7 ) ;
#54 = CC_DESIGN_PERSON_AND_ORGANIZATION_ASSIGNMENT ( #115, #147, ( #57 ) ) ;
#55 = APPROVAL ( #151, 'UNSPECIFIED' ) ;
#56 = CC_DESIGN_DATE_AND_TIME_ASSIGNMENT ( #154, #137, ( #11 ) ) ;
#57 = PRODUCT_DEFINITION ( 'UNKNOWN', '', #14, #94 ) ;
#58 = EDGE_CURVE ( 'NONE', #221, #215, #219, .T. ) ;
#59 = ADVANCED_FACE ( 'NONE', ( #8 ), #175, .T. ) ;
#60 = EDGE_CURVE ( 'NONE', #225, #224, #222, .T. ) ;
#61 = LOCAL_TIME ( 20, 29, 25.00000000000000000, #48 ) ;
#62 = EDGE_CURVE ( 'NONE', #217, #214, #183, .T. ) ;
#63 = CC_DESIGN_PERSON_AND_ORGANIZATION_ASSIGNMENT ( #146, #133, ( #88 ) ) ;
#64 = APPROVAL ( #121, 'UNSPECIFIED' ) ;
#65 = LOCAL_TIME ( 20, 29, 25.00000000000000000, #23 ) ;
#66 = CC_DESIGN_PERSON_AND_ORGANIZATION_ASSIGNMENT ( #126, #138, ( #11 ) ) ;
#67 = PRODUCT_RELATED_PRODUCT_CATEGORY ( 'detail', '', ( #88 ) ) ;
#68 = EDGE_CURVE ( 'NONE', #217, #224, #195, .T. ) ;
#69 = CIRCLE ( 'NONE', #28, 7.499999999999999100 ) ;
#70 = APPROVAL ( #100, 'UNSPECIFIED' ) ;
#71 = EDGE_CURVE ( 'NONE', #214, #221, #69, .T. ) ;
#72 = LOCAL_TIME ( 20, 29, 25.00000000000000000, #45 ) ;
#73 = EDGE_CURVE ( 'NONE', #215, #225, #194, .T. ) ;
#74 = ADVANCED_FACE ( 'NONE', ( #24 ), #192, .F. ) ;
#75 = EDGE_CURVE ( 'NONE', #218, #213, #87, .T. ) ;
#76 = CC_DESIGN_DATE_AND_TIME_ASSIGNMENT ( #98, #96, ( #57 ) ) ;
#77 = ADVANCED_FACE ( 'NONE', ( #31 ), #232, .F. ) ;
#78 = ADVANCED_FACE ( 'NONE', ( #5 ), #156, .F. ) ;
#79 = EDGE_CURVE ( 'NONE', #214, #218, #160, .T. ) ;
#80 = LOCAL_TIME ( 20, 29, 25.00000000000000000, #13 ) ;
#81 = ADVANCED_FACE ( 'NONE', ( #12 ), #136, .F. ) ;
#82 = EDGE_CURVE ( 'NONE', #221, #213, #166, .T. ) ;
#83 = ADVANCED_FACE ( 'NONE', ( #40 ), #42, .T. ) ;
#84 = EDGE_CURVE ( 'NONE', #224, #218, #110, .T. ) ;
#85 = EDGE_CURVE ( 'NONE', #213, #225, #106, .T. ) ;
#86 = EDGE_CURVE ( 'NONE', #215, #217, #103, .T. ) ;
#87 = CIRCLE ( 'NONE', #37, 7.499999999999999100 ) ;
#88 = PRODUCT ( 'sone3D', 'sone3D', '', ( #148 ) ) ;
#89 = APPLICATION_CONTEXT ( 'configuration controlled 3d designs of mechanical parts and assemblies' ) ;
#90 = APPLICATION_CONTEXT ( 'configuration controlled 3d designs of mechanical parts and assemblies' ) ;
#91 =( GEOMETRIC_REPRESENTATION_CONTEXT ( 3 ) GLOBAL_UNCERTAINTY_ASSIGNED_CONTEXT ( ( #1 ) ) GLOBAL_UNIT_ASSIGNED_CONTEXT ( ( #117, #119, #125 ) ) REPRESENTATION_CONTEXT ( 'NONE', 'WORKASPACE' ) );
#92 = MANIFOLD_SOLID_BREP ( 'ÎÞ½ - µoµ1', #47 ) ;
#93 = PRODUCT_DEFINITION_SHAPE ( 'NONE', 'NONE',  #57 ) ;
#94 = DESIGN_CONTEXT ( 'detailed design', #90, 'design' ) ;
#95 = CARTESIAN_POINT ( 'NONE',  ( 7.500000000000000000, 2.755455298081544400E-015, 500.0000000000000000 ) ) ;
#96 = DATE_TIME_ROLE ( 'creation_date' ) ;
#97 = CARTESIAN_POINT ( 'NONE',  ( -7.500000000000000000, 0.0000000000000000000, 500.0000000000000000 ) ) ;
#98 = DATE_AND_TIME ( #41, #53 ) ;
#99 = CARTESIAN_POINT ( 'NONE',  ( 7.499999999999998200, 4.500000000000004400, 500.0000000000000000 ) ) ;
#100 = APPROVAL_STATUS ( 'not_yet_approved' ) ;
#101 = DIRECTION ( 'NONE',  ( 1.000000000000000000, 1.836970198721029700E-016, 0.0000000000000000000 ) ) ;
#102 = CARTESIAN_POINT ( 'NONE',  ( -7.500000000000000000, 0.0000000000000000000, 500.0000000000000000 ) ) ;
#103 = LINE ( 'NONE', #102, #21 ) ;
#104 = DIRECTION ( 'NONE',  ( -0.0000000000000000000, -1.000000000000000000, -0.0000000000000000000 ) ) ;
#105 = CARTESIAN_POINT ( 'NONE',  ( -7.500000000000000000, 0.0000000000000000000, -500.0000000000000000 ) ) ;
#106 = LINE ( 'NONE', #105, #22 ) ;
#107 = CARTESIAN_POINT ( 'NONE',  ( -7.500000000000000000, 4.500000000000003600, -500.0000000000000000 ) ) ;
#108 = DIRECTION ( 'NONE',  ( -3.854941057726236100E-016, 1.000000000000000000, 0.0000000000000000000 ) ) ;
#109 = CARTESIAN_POINT ( 'NONE',  ( 7.500000000000000000, 2.755455298081544400E-015, -500.0000000000000000 ) ) ;
#110 = LINE ( 'NONE', #109, #27 ) ;
#111 = CARTESIAN_POINT ( 'NONE',  ( -8.266365894244638300E-016, 4.500000000000002700, 500.0000000000000000 ) ) ;
#112 = DATE_AND_TIME ( #18, #72 ) ;
#113 = PERSON_AND_ORGANIZATION ( #2, #19 ) ;
#114 = APPROVAL_ROLE ( '' ) ;
#115 = PERSON_AND_ORGANIZATION ( #2, #19 ) ;
#116 = PERSON_AND_ORGANIZATION ( #2, #19 ) ;
#117 =( LENGTH_UNIT ( ) NAMED_UNIT ( * ) SI_UNIT ( .MILLI., .METRE. ) );
#118 = PERSON_AND_ORGANIZATION_ROLE ( 'creator' ) ;
#119 =( NAMED_UNIT ( * ) PLANE_ANGLE_UNIT ( ) SI_UNIT ( $, .RADIAN. ) );
#120 = APPROVAL_ROLE ( '' ) ;
#121 = APPROVAL_STATUS ( 'not_yet_approved' ) ;
#122 = DIRECTION ( 'NONE',  ( -0.0000000000000000000, -0.0000000000000000000, -1.000000000000000000 ) ) ;
#123 = PERSON_AND_ORGANIZATION ( #2, #19 ) ;
#124 = SECURITY_CLASSIFICATION_LEVEL ( 'unclassified' ) ;
#125 =( NAMED_UNIT ( * ) SI_UNIT ( $, .STERADIAN. ) SOLID_ANGLE_UNIT ( ) );
#126 = PERSON_AND_ORGANIZATION ( #2, #19 ) ;
#127 = SHAPE_DEFINITION_REPRESENTATION ( #93, #3 ) ;
#128 = DIRECTION ( 'NONE',  ( -1.000000000000000000, 0.0000000000000000000, 0.0000000000000000000 ) ) ;
#129 = APPLICATION_PROTOCOL_DEFINITION ( 'international standard', 'config_control_design', 1994, #89 ) ;
#130 = APPROVAL_ROLE ( '' ) ;
#131 = DATE_AND_TIME ( #44, #61 ) ;
#132 = CARTESIAN_POINT ( 'NONE',  ( 0.0000000000000000000, 0.0000000000000000000, 0.0000000000000000000 ) ) ;
#133 = PERSON_AND_ORGANIZATION_ROLE ( 'design_owner' ) ;
#134 = APPROVAL_DATE_TIME ( #112, #70 ) ;
#135 = CARTESIAN_POINT ( 'NONE',  ( -7.500000000000000000, 0.0000000000000000000, -500.0000000000000000 ) ) ;
#136 = PLANE ( 'NONE',  #4 ) ;
#137 = DATE_TIME_ROLE ( 'classification_date' ) ;
#138 = PERSON_AND_ORGANIZATION_ROLE ( 'classification_officer' ) ;
#139 = CARTESIAN_POINT ( 'NONE',  ( 7.500000000000000000, 2.755455298081544400E-015, -500.0000000000000000 ) ) ;
#140 = CARTESIAN_POINT ( 'NONE',  ( 7.499999999999998200, 4.500000000000004400, -500.0000000000000000 ) ) ;
#141 = APPROVAL_DATE_TIME ( #131, #64 ) ;
#142 = DIRECTION ( 'NONE',  ( 0.0000000000000000000, 0.0000000000000000000, 1.000000000000000000 ) ) ;
#143 = APPLICATION_PROTOCOL_DEFINITION ( 'international standard', 'config_control_design', 1994, #90 ) ;
#144 = PERSON_AND_ORGANIZATION ( #2, #19 ) ;
#145 = DIRECTION ( 'NONE',  ( 1.000000000000000000, 0.0000000000000000000, 0.0000000000000000000 ) ) ;
#146 = PERSON_AND_ORGANIZATION ( #2, #19 ) ;
#147 = PERSON_AND_ORGANIZATION_ROLE ( 'creator' ) ;
#148 = MECHANICAL_CONTEXT ( 'NONE', #89, 'mechanical' ) ;
#149 = CARTESIAN_POINT ( 'NONE',  ( -7.500000000000000000, 4.500000000000003600, 500.0000000000000000 ) ) ;
#150 = PERSON_AND_ORGANIZATION ( #2, #19 ) ;
#151 = APPROVAL_STATUS ( 'not_yet_approved' ) ;
#152 = PERSON_AND_ORGANIZATION_ROLE ( 'design_supplier' ) ;
#153 = DATE_AND_TIME ( #32, #80 ) ;
#154 = DATE_AND_TIME ( #38, #65 ) ;
#155 = APPROVAL_DATE_TIME ( #153, #55 ) ;
#156 = PLANE ( 'NONE',  #9 ) ;
#157 = CARTESIAN_POINT ( 'NONE',  ( -7.500000000000000000, 0.0000000000000000000, 500.0000000000000000 ) ) ;
#158 = DIRECTION ( 'NONE',  ( -1.836970198721029700E-016, 1.000000000000000000, 0.0000000000000000000 ) ) ;
#159 = DIRECTION ( 'NONE',  ( -1.000000000000000000, -1.836970198721029700E-016, 0.0000000000000000000 ) ) ;
#160 = LINE ( 'NONE', #161, #34 ) ;
#161 = CARTESIAN_POINT ( 'NONE',  ( 7.499999999999998200, 4.500000000000004400, 500.0000000000000000 ) ) ;
#162 = DIRECTION ( 'NONE',  ( -0.0000000000000000000, -0.0000000000000000000, -1.000000000000000000 ) ) ;
#163 = CARTESIAN_POINT ( 'NONE',  ( -8.266365894244638300E-016, 4.500000000000002700, -500.0000000000000000 ) ) ;
#164 = DIRECTION ( 'NONE',  ( 0.0000000000000000000, 0.0000000000000000000, 1.000000000000000000 ) ) ;
#165 = DIRECTION ( 'NONE',  ( 1.000000000000000000, 0.0000000000000000000, -0.0000000000000000000 ) ) ;
#166 = LINE ( 'NONE', #167, #25 ) ;
#167 = CARTESIAN_POINT ( 'NONE',  ( -7.500000000000000000, 4.500000000000003600, 500.0000000000000000 ) ) ;
#168 = DIRECTION ( 'NONE',  ( -0.0000000000000000000, -0.0000000000000000000, -1.000000000000000000 ) ) ;
#169 = ORIENTED_EDGE ( 'NONE', *, *, #62, .T. ) ;
#170 = DIRECTION ( 'NONE',  ( 0.0000000000000000000, 0.0000000000000000000, -1.000000000000000000 ) ) ;
#171 = DIRECTION ( 'NONE',  ( -0.0000000000000000000, -0.0000000000000000000, -1.000000000000000000 ) ) ;
#172 = EDGE_LOOP ( 'NONE', ( #209, #186, #193, #173 ) ) ;
#173 = ORIENTED_EDGE ( 'NONE', *, *, #68, .T. ) ;
#174 = CARTESIAN_POINT ( 'NONE',  ( -8.266365894244638300E-016, 4.500000000000002700, 500.0000000000000000 ) ) ;
#175 = PLANE ( 'NONE',  #43 ) ;
#176 = ORIENTED_EDGE ( 'NONE', *, *, #73, .F. ) ;
#177 = DIRECTION ( 'NONE',  ( 1.000000000000000000, 0.0000000000000000000, -0.0000000000000000000 ) ) ;
#178 = DIRECTION ( 'NONE',  ( 0.0000000000000000000, 0.0000000000000000000, 1.000000000000000000 ) ) ;
#179 = CARTESIAN_POINT ( 'NONE',  ( -7.500000000000000000, 0.0000000000000000000, -500.0000000000000000 ) ) ;
#180 = CARTESIAN_POINT ( 'NONE',  ( -7.500000000000000000, 0.0000000000000000000, 500.0000000000000000 ) ) ;
#181 = EDGE_LOOP ( 'NONE', ( #200, #223, #169, #199 ) ) ;
#182 = ORIENTED_EDGE ( 'NONE', *, *, #79, .T. ) ;
#183 = LINE ( 'NONE', #185, #50 ) ;
#184 = ORIENTED_EDGE ( 'NONE', *, *, #71, .F. ) ;
#185 = CARTESIAN_POINT ( 'NONE',  ( 7.500000000000000000, 2.755455298081544400E-015, 500.0000000000000000 ) ) ;
#186 = ORIENTED_EDGE ( 'NONE', *, *, #79, .F. ) ;
#187 = ORIENTED_EDGE ( 'NONE', *, *, #82, .F. ) ;
#188 = DIRECTION ( 'NONE',  ( -0.0000000000000000000, -1.000000000000000000, -0.0000000000000000000 ) ) ;
#189 = ORIENTED_EDGE ( 'NONE', *, *, #75, .T. ) ;
#190 = EDGE_LOOP ( 'NONE', ( #208, #203, #205, #216 ) ) ;
#191 = DIRECTION ( 'NONE',  ( -3.854941057726236100E-016, 1.000000000000000000, 0.0000000000000000000 ) ) ;
#192 = PLANE ( 'NONE',  #30 ) ;
#193 = ORIENTED_EDGE ( 'NONE', *, *, #62, .F. ) ;
#194 = LINE ( 'NONE', #197, #6 ) ;
#195 = LINE ( 'NONE', #196, #33 ) ;
#196 = CARTESIAN_POINT ( 'NONE',  ( 7.500000000000000000, 2.755455298081544400E-015, 500.0000000000000000 ) ) ;
#197 = CARTESIAN_POINT ( 'NONE',  ( -7.500000000000000000, 0.0000000000000000000, 500.0000000000000000 ) ) ;
#198 = DIRECTION ( 'NONE',  ( 1.000000000000000000, 1.836970198721029700E-016, 0.0000000000000000000 ) ) ;
#199 = ORIENTED_EDGE ( 'NONE', *, *, #71, .T. ) ;
#200 = ORIENTED_EDGE ( 'NONE', *, *, #58, .T. ) ;
#201 = CARTESIAN_POINT ( 'NONE',  ( 7.500000000000000000, 2.755455298081544400E-015, 500.0000000000000000 ) ) ;
#202 = ORIENTED_EDGE ( 'NONE', *, *, #58, .F. ) ;
#203 = ORIENTED_EDGE ( 'NONE', *, *, #75, .F. ) ;
#204 = CARTESIAN_POINT ( 'NONE',  ( -8.266365894244638300E-016, 4.500000000000002700, 500.0000000000000000 ) ) ;
#205 = ORIENTED_EDGE ( 'NONE', *, *, #84, .F. ) ;
#206 = ORIENTED_EDGE ( 'NONE', *, *, #86, .F. ) ;
#207 = ORIENTED_EDGE ( 'NONE', *, *, #73, .T. ) ;
#208 = ORIENTED_EDGE ( 'NONE', *, *, #85, .F. ) ;
#209 = ORIENTED_EDGE ( 'NONE', *, *, #84, .T. ) ;
#210 = ORIENTED_EDGE ( 'NONE', *, *, #60, .T. ) ;
#211 = ORIENTED_EDGE ( 'NONE', *, *, #85, .T. ) ;
#212 = ORIENTED_EDGE ( 'NONE', *, *, #82, .T. ) ;
#213 = VERTEX_POINT ( 'NONE', #107 ) ;
#214 = VERTEX_POINT ( 'NONE', #99 ) ;
#215 = VERTEX_POINT ( 'NONE', #97 ) ;
#216 = ORIENTED_EDGE ( 'NONE', *, *, #60, .F. ) ;
#217 = VERTEX_POINT ( 'NONE', #95 ) ;
#218 = VERTEX_POINT ( 'NONE', #140 ) ;
#219 = LINE ( 'NONE', #180, #17 ) ;
#220 = EDGE_LOOP ( 'NONE', ( #189, #187, #184, #182 ) ) ;
#221 = VERTEX_POINT ( 'NONE', #149 ) ;
#222 = LINE ( 'NONE', #179, #35 ) ;
#223 = ORIENTED_EDGE ( 'NONE', *, *, #86, .T. ) ;
#224 = VERTEX_POINT ( 'NONE', #139 ) ;
#225 = VERTEX_POINT ( 'NONE', #135 ) ;
#226 = DIRECTION ( 'NONE',  ( 1.000000000000000000, 0.0000000000000000000, 0.0000000000000000000 ) ) ;
#227 = ORIENTED_EDGE ( 'NONE', *, *, #68, .F. ) ;
#228 = EDGE_LOOP ( 'NONE', ( #211, #176, #202, #212 ) ) ;
#229 = EDGE_LOOP ( 'NONE', ( #210, #227, #206, #207 ) ) ;
#230 = DIRECTION ( 'NONE',  ( 1.000000000000000000, 0.0000000000000000000, 0.0000000000000000000 ) ) ;
#231 = DIRECTION ( 'NONE',  ( 0.0000000000000000000, 0.0000000000000000000, 1.000000000000000000 ) ) ;
#232 = PLANE ( 'NONE',  #46 ) ;
#233 = DIRECTION ( 'NONE',  ( 1.000000000000000000, 0.0000000000000000000, 0.0000000000000000000 ) ) ;
#234 = DIRECTION ( 'NONE',  ( 0.0000000000000000000, 0.0000000000000000000, 1.000000000000000000 ) ) ;
#235 = CARTESIAN_POINT ( 'NONE',  ( -8.266365894244638300E-016, 4.500000000000002700, -500.0000000000000000 ) ) ;
#236 = DIRECTION ( 'NONE',  ( 3.854941057726236100E-016, -1.000000000000000000, 0.0000000000000000000 ) ) ;
#237 = CARTESIAN_POINT ( 'NONE',  ( -7.500000000000000000, 0.0000000000000000000, 500.0000000000000000 ) ) ;
#238 = DIRECTION ( 'NONE',  ( -0.0000000000000000000, -0.0000000000000000000, -1.000000000000000000 ) ) ;
#239 = DIRECTION ( 'NONE',  ( -1.000000000000000000, -3.854941057726236100E-016, 0.0000000000000000000 ) ) ;
ENDSEC;
END-ISO-10303-21;
