ISO-10303-21;
HEADER;
FILE_DESCRIPTION (( 'STEP AP203' ),
    '1' );
FILE_NAME ('sone3D.STEP',
    '2015-08-11T11:29:11',
    ( '' ),
    ( '' ),
    'SwSTEP 2.0',
    'SolidWorks 2012',
    '' );
FILE_SCHEMA (( 'CONFIG_CONTROL_DESIGN' ));
ENDSEC;

DATA;
#1 = UNCERTAINTY_MEASURE_WITH_UNIT (LENGTH_MEASURE( 1.000000000000000100E-005 ), #117, 'distance_accuracy_value', 'NONE');
#2 = PERSON ( 'UNSPECIFIED', 'UNSPECIFIED', 'UNSPECIFIED', ('UNSPECIFIED'), ('UNSPECIFIED'), ('UNSPECIFIED') ) ;
#3 = ADVANCED_BREP_SHAPE_REPRESENTATION ( 'sone3D', ( #94, #35 ), #91 ) ;
#4 = APPLICATION_CONTEXT ( 'configuration controlled 3d designs of mechanical parts and assemblies' ) ;
#5 = APPLICATION_CONTEXT ( 'configuration controlled 3d designs of mechanical parts and assemblies' ) ;
#6 = PRODUCT_DEFINITION_FORMATION_WITH_SPECIFIED_SOURCE ( 'ANY', '', #90, .NOT_KNOWN. ) ;
#7 = APPROVAL_PERSON_ORGANIZATION ( #153, #64, #166 ) ;
#8 = COORDINATED_UNIVERSAL_TIME_OFFSET ( 9, 0, .AHEAD. ) ;
#9 = FACE_OUTER_BOUND ( 'NONE', #210, .T. ) ;
#10 = CC_DESIGN_APPROVAL ( #64, ( #6 ) ) ;
#11 = APPROVAL_PERSON_ORGANIZATION ( #122, #84, #135 ) ;
#12 = FACE_OUTER_BOUND ( 'NONE', #212, .T. ) ;
#13 = VECTOR ( 'NONE', #179, 1000.000000000000000 ) ;
#14 = VECTOR ( 'NONE', #234, 1000.000000000000000 ) ;
#15 = CC_DESIGN_SECURITY_CLASSIFICATION ( #16, ( #6 ) ) ;
#16 = SECURITY_CLASSIFICATION ( '', '', #108 ) ;
#17 = CALENDAR_DATE ( 2015, 11, 8 ) ;
#18 = AXIS2_PLACEMENT_3D ( 'NONE', #196, #236, #205 ) ;
#19 = CALENDAR_DATE ( 2015, 11, 8 ) ;
#20 = COORDINATED_UNIVERSAL_TIME_OFFSET ( 9, 0, .AHEAD. ) ;
#21 = FACE_OUTER_BOUND ( 'NONE', #209, .T. ) ;
#22 = CALENDAR_DATE ( 2015, 11, 8 ) ;
#23 = FACE_OUTER_BOUND ( 'NONE', #195, .T. ) ;
#24 = VECTOR ( 'NONE', #177, 1000.000000000000000 ) ;
#25 = VECTOR ( 'NONE', #101, 1000.000000000000000 ) ;
#26 = CYLINDRICAL_SURFACE ( 'NONE', #47, 7.499999999999999100 ) ;
#27 = VECTOR ( 'NONE', #216, 1000.000000000000000 ) ;
#28 = CC_DESIGN_APPROVAL ( #72, ( #16 ) ) ;
#29 = COORDINATED_UNIVERSAL_TIME_OFFSET ( 9, 0, .AHEAD. ) ;
#30 = VECTOR ( 'NONE', #98, 1000.000000000000000 ) ;
#31 = COORDINATED_UNIVERSAL_TIME_OFFSET ( 9, 0, .AHEAD. ) ;
#32 = CALENDAR_DATE ( 2015, 11, 8 ) ;
#33 = AXIS2_PLACEMENT_3D ( 'NONE', #192, #178, #193 ) ;
#34 = APPROVAL_PERSON_ORGANIZATION ( #110, #72, #157 ) ;
#35 = AXIS2_PLACEMENT_3D ( 'NONE', #138, #120, #129 ) ;
#36 = AXIS2_PLACEMENT_3D ( 'NONE', #180, #174, #175 ) ;
#37 = AXIS2_PLACEMENT_3D ( 'NONE', #162, #104, #103 ) ;
#38 = AXIS2_PLACEMENT_3D ( 'NONE', #152, #154, #155 ) ;
#39 = ORGANIZATION ( 'UNSPECIFIED', 'UNSPECIFIED', '' ) ;
#40 = FACE_OUTER_BOUND ( 'NONE', #239, .T. ) ;
#41 = VECTOR ( 'NONE', #109, 1000.000000000000000 ) ;
#42 = AXIS2_PLACEMENT_3D ( 'NONE', #147, #148, #149 ) ;
#43 = CC_DESIGN_APPROVAL ( #84, ( #70 ) ) ;
#44 = VECTOR ( 'NONE', #105, 1000.000000000000000 ) ;
#45 = COORDINATED_UNIVERSAL_TIME_OFFSET ( 9, 0, .AHEAD. ) ;
#46 = AXIS2_PLACEMENT_3D ( 'NONE', #211, #172, #189 ) ;
#47 = AXIS2_PLACEMENT_3D ( 'NONE', #170, #169, #190 ) ;
#48 = FACE_OUTER_BOUND ( 'NONE', #187, .T. ) ;
#49 = CALENDAR_DATE ( 2015, 11, 8 ) ;
#50 = VECTOR ( 'NONE', #161, 1000.000000000000000 ) ;
#51 = VECTOR ( 'NONE', #146, 1000.000000000000000 ) ;
#52 = CLOSED_SHELL ( 'NONE', ( #67, #57, #80, #65, #63, #79 ) ) ;
#53 = LOCAL_TIME ( 20, 29, 11.00000000000000000, #31 ) ;
#54 = CC_DESIGN_PERSON_AND_ORGANIZATION_ASSIGNMENT ( #114, #132, ( #16 ) ) ;
#55 = CC_DESIGN_PERSON_AND_ORGANIZATION_ASSIGNMENT ( #160, #163, ( #6 ) ) ;
#56 = CC_DESIGN_DATE_AND_TIME_ASSIGNMENT ( #140, #121, ( #70 ) ) ;
#57 = ADVANCED_FACE ( 'NONE', ( #23 ), #208, .F. ) ;
#58 = LOCAL_TIME ( 20, 29, 11.00000000000000000, #20 ) ;
#59 = PRODUCT_RELATED_PRODUCT_CATEGORY ( 'detail', '', ( #90 ) ) ;
#60 = LOCAL_TIME ( 20, 29, 11.00000000000000000, #8 ) ;
#61 = CC_DESIGN_PERSON_AND_ORGANIZATION_ASSIGNMENT ( #143, #145, ( #70 ) ) ;
#62 = LOCAL_TIME ( 20, 29, 11.00000000000000000, #29 ) ;
#63 = ADVANCED_FACE ( 'NONE', ( #21 ), #191, .T. ) ;
#64 = APPROVAL ( #165, 'UNSPECIFIED' ) ;
#65 = ADVANCED_FACE ( 'NONE', ( #12 ), #26, .T. ) ;
#66 = CC_DESIGN_PERSON_AND_ORGANIZATION_ASSIGNMENT ( #123, #124, ( #90 ) ) ;
#67 = ADVANCED_FACE ( 'NONE', ( #48 ), #176, .F. ) ;
#68 = CC_DESIGN_DATE_AND_TIME_ASSIGNMENT ( #111, #151, ( #16 ) ) ;
#69 = EDGE_CURVE ( 'NONE', #233, #228, #171, .T. ) ;
#70 = PRODUCT_DEFINITION ( 'UNKNOWN', '', #6, #92 ) ;
#71 = EDGE_CURVE ( 'NONE', #223, #229, #185, .T. ) ;
#72 = APPROVAL ( #156, 'UNSPECIFIED' ) ;
#73 = CIRCLE ( 'NONE', #37, 7.499999999999999100 ) ;
#74 = EDGE_CURVE ( 'NONE', #226, #223, #85, .T. ) ;
#75 = EDGE_CURVE ( 'NONE', #232, #226, #237, .T. ) ;
#76 = EDGE_CURVE ( 'NONE', #217, #227, #204, .T. ) ;
#77 = EDGE_CURVE ( 'NONE', #228, #217, #235, .T. ) ;
#78 = CC_DESIGN_PERSON_AND_ORGANIZATION_ASSIGNMENT ( #142, #141, ( #6 ) ) ;
#79 = ADVANCED_FACE ( 'NONE', ( #40 ), #230, .F. ) ;
#80 = ADVANCED_FACE ( 'NONE', ( #9 ), #150, .F. ) ;
#81 = EDGE_CURVE ( 'NONE', #233, #223, #158, .T. ) ;
#82 = EDGE_CURVE ( 'NONE', #229, #227, #164, .T. ) ;
#83 = EDGE_CURVE ( 'NONE', #227, #226, #112, .T. ) ;
#84 = APPROVAL ( #133, 'UNSPECIFIED' ) ;
#85 = CIRCLE ( 'NONE', #36, 7.499999999999999100 ) ;
#86 = EDGE_CURVE ( 'NONE', #232, #233, #73, .T. ) ;
#87 = EDGE_CURVE ( 'NONE', #228, #229, #139, .T. ) ;
#88 = LOCAL_TIME ( 20, 29, 11.00000000000000000, #45 ) ;
#89 = EDGE_CURVE ( 'NONE', #217, #232, #100, .T. ) ;
#90 = PRODUCT ( 'sone3D', 'sone3D', '', ( #136 ) ) ;
#91 =( GEOMETRIC_REPRESENTATION_CONTEXT ( 3 ) GLOBAL_UNCERTAINTY_ASSIGNED_CONTEXT ( ( #1 ) ) GLOBAL_UNIT_ASSIGNED_CONTEXT ( ( #117, #118, #128 ) ) REPRESENTATION_CONTEXT ( 'NONE', 'WORKASPACE' ) );
#92 = DESIGN_CONTEXT ( 'detailed design', #4, 'design' ) ;
#93 = PRODUCT_DEFINITION_SHAPE ( 'NONE', 'NONE',  #70 ) ;
#94 = MANIFOLD_SOLID_BREP ( 'ÎÞ½ - µoµ1', #52 ) ;
#95 = CARTESIAN_POINT ( 'NONE',  ( 7.500000000000000000, 2.755455298081544400E-015, -500.0000000000000000 ) ) ;
#96 = CARTESIAN_POINT ( 'NONE',  ( 7.499999999999998200, 2.500000000000004000, -500.0000000000000000 ) ) ;
#97 = CARTESIAN_POINT ( 'NONE',  ( -7.500000000000000000, 2.500000000000001800, -500.0000000000000000 ) ) ;
#98 = DIRECTION ( 'NONE',  ( -6.938893903907224400E-016, 1.000000000000000000, 0.0000000000000000000 ) ) ;
#99 = CARTESIAN_POINT ( 'NONE',  ( 7.500000000000000000, 2.755455298081544400E-015, 500.0000000000000000 ) ) ;
#100 = LINE ( 'NONE', #99, #30 ) ;
#101 = DIRECTION ( 'NONE',  ( -0.0000000000000000000, -0.0000000000000000000, -1.000000000000000000 ) ) ;
#102 = CARTESIAN_POINT ( 'NONE',  ( 7.500000000000000000, 2.755455298081544400E-015, 500.0000000000000000 ) ) ;
#103 = DIRECTION ( 'NONE',  ( 1.000000000000000000, 0.0000000000000000000, 0.0000000000000000000 ) ) ;
#104 = DIRECTION ( 'NONE',  ( 0.0000000000000000000, 0.0000000000000000000, 1.000000000000000000 ) ) ;
#105 = DIRECTION ( 'NONE',  ( -6.938893903907224400E-016, 1.000000000000000000, 0.0000000000000000000 ) ) ;
#106 = APPROVAL_DATE_TIME ( #134, #84 ) ;
#107 = CARTESIAN_POINT ( 'NONE',  ( 7.500000000000000000, 2.755455298081544400E-015, -500.0000000000000000 ) ) ;
#108 = SECURITY_CLASSIFICATION_LEVEL ( 'unclassified' ) ;
#109 = DIRECTION ( 'NONE',  ( 1.000000000000000000, 1.836970198721029700E-016, 0.0000000000000000000 ) ) ;
#110 = PERSON_AND_ORGANIZATION ( #2, #39 ) ;
#111 = DATE_AND_TIME ( #17, #53 ) ;
#112 = LINE ( 'NONE', #107, #44 ) ;
#113 = DATE_AND_TIME ( #32, #88 ) ;
#114 = PERSON_AND_ORGANIZATION ( #2, #39 ) ;
#115 = APPROVAL_DATE_TIME ( #113, #72 ) ;
#116 = CARTESIAN_POINT ( 'NONE',  ( -7.500000000000000000, 2.500000000000001800, 500.0000000000000000 ) ) ;
#117 =( LENGTH_UNIT ( ) NAMED_UNIT ( * ) SI_UNIT ( .MILLI., .METRE. ) );
#118 =( NAMED_UNIT ( * ) PLANE_ANGLE_UNIT ( ) SI_UNIT ( $, .RADIAN. ) );
#119 = CARTESIAN_POINT ( 'NONE',  ( 7.499999999999998200, 2.500000000000004000, 500.0000000000000000 ) ) ;
#120 = DIRECTION ( 'NONE',  ( 0.0000000000000000000, 0.0000000000000000000, 1.000000000000000000 ) ) ;
#121 = DATE_TIME_ROLE ( 'creation_date' ) ;
#122 = PERSON_AND_ORGANIZATION ( #2, #39 ) ;
#123 = PERSON_AND_ORGANIZATION ( #2, #39 ) ;
#124 = PERSON_AND_ORGANIZATION_ROLE ( 'design_owner' ) ;
#125 = APPLICATION_PROTOCOL_DEFINITION ( 'international standard', 'config_control_design', 1994, #4 ) ;
#126 = SHAPE_DEFINITION_REPRESENTATION ( #93, #3 ) ;
#127 = CARTESIAN_POINT ( 'NONE',  ( -7.500000000000000000, 0.0000000000000000000, -500.0000000000000000 ) ) ;
#128 =( NAMED_UNIT ( * ) SI_UNIT ( $, .STERADIAN. ) SOLID_ANGLE_UNIT ( ) );
#129 = DIRECTION ( 'NONE',  ( 1.000000000000000000, 0.0000000000000000000, 0.0000000000000000000 ) ) ;
#130 = CARTESIAN_POINT ( 'NONE',  ( -7.500000000000000000, 0.0000000000000000000, 500.0000000000000000 ) ) ;
#131 = APPLICATION_PROTOCOL_DEFINITION ( 'international standard', 'config_control_design', 1994, #5 ) ;
#132 = PERSON_AND_ORGANIZATION_ROLE ( 'classification_officer' ) ;
#133 = APPROVAL_STATUS ( 'not_yet_approved' ) ;
#134 = DATE_AND_TIME ( #49, #60 ) ;
#135 = APPROVAL_ROLE ( '' ) ;
#136 = MECHANICAL_CONTEXT ( 'NONE', #5, 'mechanical' ) ;
#137 = CARTESIAN_POINT ( 'NONE',  ( -7.500000000000000000, 0.0000000000000000000, 500.0000000000000000 ) ) ;
#138 = CARTESIAN_POINT ( 'NONE',  ( 0.0000000000000000000, 0.0000000000000000000, 0.0000000000000000000 ) ) ;
#139 = LINE ( 'NONE', #137, #25 ) ;
#140 = DATE_AND_TIME ( #19, #58 ) ;
#141 = PERSON_AND_ORGANIZATION_ROLE ( 'creator' ) ;
#142 = PERSON_AND_ORGANIZATION ( #2, #39 ) ;
#143 = PERSON_AND_ORGANIZATION ( #2, #39 ) ;
#144 = APPROVAL_DATE_TIME ( #168, #64 ) ;
#145 = PERSON_AND_ORGANIZATION_ROLE ( 'creator' ) ;
#146 = DIRECTION ( 'NONE',  ( 1.000000000000000000, 1.836970198721029700E-016, 0.0000000000000000000 ) ) ;
#147 = CARTESIAN_POINT ( 'NONE',  ( -4.592425496802575000E-016, 2.500000000000000900, -500.0000000000000000 ) ) ;
#148 = DIRECTION ( 'NONE',  ( 0.0000000000000000000, 0.0000000000000000000, 1.000000000000000000 ) ) ;
#149 = DIRECTION ( 'NONE',  ( 1.000000000000000000, 0.0000000000000000000, -0.0000000000000000000 ) ) ;
#150 = PLANE ( 'NONE',  #38 ) ;
#151 = DATE_TIME_ROLE ( 'classification_date' ) ;
#152 = CARTESIAN_POINT ( 'NONE',  ( 7.500000000000000000, 2.755455298081544400E-015, 500.0000000000000000 ) ) ;
#153 = PERSON_AND_ORGANIZATION ( #2, #39 ) ;
#154 = DIRECTION ( 'NONE',  ( -1.000000000000000000, -6.938893903907224400E-016, 0.0000000000000000000 ) ) ;
#155 = DIRECTION ( 'NONE',  ( 6.938893903907224400E-016, -1.000000000000000000, 0.0000000000000000000 ) ) ;
#156 = APPROVAL_STATUS ( 'not_yet_approved' ) ;
#157 = APPROVAL_ROLE ( '' ) ;
#158 = LINE ( 'NONE', #159, #50 ) ;
#159 = CARTESIAN_POINT ( 'NONE',  ( -7.500000000000000000, 2.500000000000001800, 500.0000000000000000 ) ) ;
#160 = PERSON_AND_ORGANIZATION ( #2, #39 ) ;
#161 = DIRECTION ( 'NONE',  ( -0.0000000000000000000, -0.0000000000000000000, -1.000000000000000000 ) ) ;
#162 = CARTESIAN_POINT ( 'NONE',  ( -4.592425496802575000E-016, 2.500000000000000900, 500.0000000000000000 ) ) ;
#163 = PERSON_AND_ORGANIZATION_ROLE ( 'design_supplier' ) ;
#164 = LINE ( 'NONE', #167, #41 ) ;
#165 = APPROVAL_STATUS ( 'not_yet_approved' ) ;
#166 = APPROVAL_ROLE ( '' ) ;
#167 = CARTESIAN_POINT ( 'NONE',  ( -7.500000000000000000, 0.0000000000000000000, -500.0000000000000000 ) ) ;
#168 = DATE_AND_TIME ( #22, #62 ) ;
#169 = DIRECTION ( 'NONE',  ( -0.0000000000000000000, -0.0000000000000000000, -1.000000000000000000 ) ) ;
#170 = CARTESIAN_POINT ( 'NONE',  ( -4.592425496802575000E-016, 2.500000000000000900, 500.0000000000000000 ) ) ;
#171 = LINE ( 'NONE', #238, #13 ) ;
#172 = DIRECTION ( 'NONE',  ( -1.836970198721029700E-016, 1.000000000000000000, 0.0000000000000000000 ) ) ;
#173 = ORIENTED_EDGE ( 'NONE', *, *, #81, .T. ) ;
#174 = DIRECTION ( 'NONE',  ( 0.0000000000000000000, 0.0000000000000000000, 1.000000000000000000 ) ) ;
#175 = DIRECTION ( 'NONE',  ( 1.000000000000000000, 0.0000000000000000000, 0.0000000000000000000 ) ) ;
#176 = PLANE ( 'NONE',  #33 ) ;
#177 = DIRECTION ( 'NONE',  ( -0.0000000000000000000, -1.000000000000000000, -0.0000000000000000000 ) ) ;
#178 = DIRECTION ( 'NONE',  ( 1.000000000000000000, 0.0000000000000000000, 0.0000000000000000000 ) ) ;
#179 = DIRECTION ( 'NONE',  ( -0.0000000000000000000, -1.000000000000000000, -0.0000000000000000000 ) ) ;
#180 = CARTESIAN_POINT ( 'NONE',  ( -4.592425496802575000E-016, 2.500000000000000900, -500.0000000000000000 ) ) ;
#181 = CARTESIAN_POINT ( 'NONE',  ( 7.500000000000000000, 2.755455298081544400E-015, 500.0000000000000000 ) ) ;
#182 = CARTESIAN_POINT ( 'NONE',  ( -7.500000000000000000, 0.0000000000000000000, -500.0000000000000000 ) ) ;
#183 = ORIENTED_EDGE ( 'NONE', *, *, #89, .F. ) ;
#184 = ORIENTED_EDGE ( 'NONE', *, *, #86, .T. ) ;
#185 = LINE ( 'NONE', #182, #24 ) ;
#186 = ORIENTED_EDGE ( 'NONE', *, *, #82, .F. ) ;
#187 = EDGE_LOOP ( 'NONE', ( #219, #224, #218, #173 ) ) ;
#188 = ORIENTED_EDGE ( 'NONE', *, *, #89, .T. ) ;
#189 = DIRECTION ( 'NONE',  ( -1.000000000000000000, -1.836970198721029700E-016, 0.0000000000000000000 ) ) ;
#190 = DIRECTION ( 'NONE',  ( -1.000000000000000000, 0.0000000000000000000, 0.0000000000000000000 ) ) ;
#191 = PLANE ( 'NONE',  #18 ) ;
#192 = CARTESIAN_POINT ( 'NONE',  ( -7.500000000000000000, 0.0000000000000000000, 500.0000000000000000 ) ) ;
#193 = DIRECTION ( 'NONE',  ( 0.0000000000000000000, 0.0000000000000000000, -1.000000000000000000 ) ) ;
#194 = ORIENTED_EDGE ( 'NONE', *, *, #75, .F. ) ;
#195 = EDGE_LOOP ( 'NONE', ( #220, #207, #206, #214 ) ) ;
#196 = CARTESIAN_POINT ( 'NONE',  ( -4.592425496802575000E-016, 2.500000000000000900, 500.0000000000000000 ) ) ;
#197 = ORIENTED_EDGE ( 'NONE', *, *, #71, .F. ) ;
#198 = ORIENTED_EDGE ( 'NONE', *, *, #81, .F. ) ;
#199 = ORIENTED_EDGE ( 'NONE', *, *, #69, .T. ) ;
#200 = ORIENTED_EDGE ( 'NONE', *, *, #86, .F. ) ;
#201 = ORIENTED_EDGE ( 'NONE', *, *, #76, .T. ) ;
#202 = ORIENTED_EDGE ( 'NONE', *, *, #74, .T. ) ;
#203 = ORIENTED_EDGE ( 'NONE', *, *, #75, .T. ) ;
#204 = LINE ( 'NONE', #181, #27 ) ;
#205 = DIRECTION ( 'NONE',  ( 1.000000000000000000, 0.0000000000000000000, -0.0000000000000000000 ) ) ;
#206 = ORIENTED_EDGE ( 'NONE', *, *, #77, .F. ) ;
#207 = ORIENTED_EDGE ( 'NONE', *, *, #76, .F. ) ;
#208 = PLANE ( 'NONE',  #46 ) ;
#209 = EDGE_LOOP ( 'NONE', ( #199, #222, #188, #184 ) ) ;
#210 = EDGE_LOOP ( 'NONE', ( #221, #194, #183, #201 ) ) ;
#211 = CARTESIAN_POINT ( 'NONE',  ( -7.500000000000000000, 0.0000000000000000000, 500.0000000000000000 ) ) ;
#212 = EDGE_LOOP ( 'NONE', ( #202, #198, #200, #203 ) ) ;
#213 = CARTESIAN_POINT ( 'NONE',  ( 7.499999999999998200, 2.500000000000004000, 500.0000000000000000 ) ) ;
#214 = ORIENTED_EDGE ( 'NONE', *, *, #87, .T. ) ;
#215 = ORIENTED_EDGE ( 'NONE', *, *, #74, .F. ) ;
#216 = DIRECTION ( 'NONE',  ( -0.0000000000000000000, -0.0000000000000000000, -1.000000000000000000 ) ) ;
#217 = VERTEX_POINT ( 'NONE', #102 ) ;
#218 = ORIENTED_EDGE ( 'NONE', *, *, #69, .F. ) ;
#219 = ORIENTED_EDGE ( 'NONE', *, *, #71, .T. ) ;
#220 = ORIENTED_EDGE ( 'NONE', *, *, #82, .T. ) ;
#221 = ORIENTED_EDGE ( 'NONE', *, *, #83, .T. ) ;
#222 = ORIENTED_EDGE ( 'NONE', *, *, #77, .T. ) ;
#223 = VERTEX_POINT ( 'NONE', #97 ) ;
#224 = ORIENTED_EDGE ( 'NONE', *, *, #87, .F. ) ;
#225 = ORIENTED_EDGE ( 'NONE', *, *, #83, .F. ) ;
#226 = VERTEX_POINT ( 'NONE', #96 ) ;
#227 = VERTEX_POINT ( 'NONE', #95 ) ;
#228 = VERTEX_POINT ( 'NONE', #130 ) ;
#229 = VERTEX_POINT ( 'NONE', #127 ) ;
#230 = PLANE ( 'NONE',  #42 ) ;
#231 = CARTESIAN_POINT ( 'NONE',  ( -7.500000000000000000, 0.0000000000000000000, 500.0000000000000000 ) ) ;
#232 = VERTEX_POINT ( 'NONE', #119 ) ;
#233 = VERTEX_POINT ( 'NONE', #116 ) ;
#234 = DIRECTION ( 'NONE',  ( -0.0000000000000000000, -0.0000000000000000000, -1.000000000000000000 ) ) ;
#235 = LINE ( 'NONE', #231, #51 ) ;
#236 = DIRECTION ( 'NONE',  ( 0.0000000000000000000, 0.0000000000000000000, 1.000000000000000000 ) ) ;
#237 = LINE ( 'NONE', #213, #14 ) ;
#238 = CARTESIAN_POINT ( 'NONE',  ( -7.500000000000000000, 0.0000000000000000000, 500.0000000000000000 ) ) ;
#239 = EDGE_LOOP ( 'NONE', ( #197, #215, #225, #186 ) ) ;
ENDSEC;
END-ISO-10303-21;
