ISO-10303-21;
HEADER;
FILE_DESCRIPTION (( 'STEP AP203' ),
    '1' );
FILE_NAME ('sone3D.STEP',
    '2015-08-11T11:28:52',
    ( '' ),
    ( '' ),
    'SwSTEP 2.0',
    'SolidWorks 2012',
    '' );
FILE_SCHEMA (( 'CONFIG_CONTROL_DESIGN' ));
ENDSEC;

DATA;
#1 = PERSON ( 'UNSPECIFIED', 'UNSPECIFIED', 'UNSPECIFIED', ('UNSPECIFIED'), ('UNSPECIFIED'), ('UNSPECIFIED') ) ;
#2 = UNCERTAINTY_MEASURE_WITH_UNIT (LENGTH_MEASURE( 1.000000000000000100E-005 ), #102, 'distance_accuracy_value', 'NONE');
#3 = ADVANCED_BREP_SHAPE_REPRESENTATION ( 'sone3D', ( #94, #8 ), #91 ) ;
#4 = APPLICATION_CONTEXT ( 'configuration controlled 3d designs of mechanical parts and assemblies' ) ;
#5 = APPLICATION_CONTEXT ( 'configuration controlled 3d designs of mechanical parts and assemblies' ) ;
#6 = CC_DESIGN_SECURITY_CLASSIFICATION ( #24, ( #28 ) ) ;
#7 = CYLINDRICAL_SURFACE ( 'NONE', #9, 5.000000000000000000 ) ;
#8 = AXIS2_PLACEMENT_3D ( 'NONE', #111, #110, #125 ) ;
#9 = AXIS2_PLACEMENT_3D ( 'NONE', #99, #98, #97 ) ;
#10 = COORDINATED_UNIVERSAL_TIME_OFFSET ( 9, 0, .AHEAD. ) ;
#11 = AXIS2_PLACEMENT_3D ( 'NONE', #180, #156, #157 ) ;
#12 = APPROVAL_PERSON_ORGANIZATION ( #124, #66, #112 ) ;
#13 = CALENDAR_DATE ( 2015, 11, 8 ) ;
#14 = VECTOR ( 'NONE', #212, 1000.000000000000000 ) ;
#15 = FACE_OUTER_BOUND ( 'NONE', #225, .T. ) ;
#16 = AXIS2_PLACEMENT_3D ( 'NONE', #230, #220, #209 ) ;
#17 = VECTOR ( 'NONE', #217, 1000.000000000000000 ) ;
#18 = APPROVAL_PERSON_ORGANIZATION ( #140, #61, #137 ) ;
#19 = AXIS2_PLACEMENT_3D ( 'NONE', #139, #165, #166 ) ;
#20 = VECTOR ( 'NONE', #176, 1000.000000000000000 ) ;
#21 = VECTOR ( 'NONE', #160, 1000.000000000000000 ) ;
#22 = CALENDAR_DATE ( 2015, 11, 8 ) ;
#23 = COORDINATED_UNIVERSAL_TIME_OFFSET ( 9, 0, .AHEAD. ) ;
#24 = SECURITY_CLASSIFICATION ( '', '', #128 ) ;
#25 = CC_DESIGN_APPROVAL ( #61, ( #24 ) ) ;
#26 = VECTOR ( 'NONE', #100, 1000.000000000000000 ) ;
#27 = AXIS2_PLACEMENT_3D ( 'NONE', #106, #105, #103 ) ;
#28 = PRODUCT_DEFINITION_FORMATION_WITH_SPECIFIED_SOURCE ( 'ANY', '', #90, .NOT_KNOWN. ) ;
#29 = VECTOR ( 'NONE', #193, 1000.000000000000000 ) ;
#30 = VECTOR ( 'NONE', #188, 1000.000000000000000 ) ;
#31 = VECTOR ( 'NONE', #229, 1000.000000000000000 ) ;
#32 = CALENDAR_DATE ( 2015, 11, 8 ) ;
#33 = COORDINATED_UNIVERSAL_TIME_OFFSET ( 9, 0, .AHEAD. ) ;
#34 = COORDINATED_UNIVERSAL_TIME_OFFSET ( 9, 0, .AHEAD. ) ;
#35 = AXIS2_PLACEMENT_3D ( 'NONE', #210, #203, #202 ) ;
#36 = FACE_OUTER_BOUND ( 'NONE', #221, .T. ) ;
#37 = VECTOR ( 'NONE', #164, 1000.000000000000000 ) ;
#38 = CC_DESIGN_APPROVAL ( #66, ( #77 ) ) ;
#39 = AXIS2_PLACEMENT_3D ( 'NONE', #168, #107, #109 ) ;
#40 = CC_DESIGN_APPROVAL ( #79, ( #28 ) ) ;
#41 = ORGANIZATION ( 'UNSPECIFIED', 'UNSPECIFIED', '' ) ;
#42 = FACE_OUTER_BOUND ( 'NONE', #237, .T. ) ;
#43 = COORDINATED_UNIVERSAL_TIME_OFFSET ( 9, 0, .AHEAD. ) ;
#44 = FACE_OUTER_BOUND ( 'NONE', #236, .T. ) ;
#45 = CLOSED_SHELL ( 'NONE', ( #74, #86, #80, #89, #85, #84 ) ) ;
#46 = AXIS2_PLACEMENT_3D ( 'NONE', #173, #232, #227 ) ;
#47 = FACE_OUTER_BOUND ( 'NONE', #233, .T. ) ;
#48 = CALENDAR_DATE ( 2015, 11, 8 ) ;
#49 = CALENDAR_DATE ( 2015, 11, 8 ) ;
#50 = VECTOR ( 'NONE', #239, 1000.000000000000000 ) ;
#51 = FACE_OUTER_BOUND ( 'NONE', #228, .T. ) ;
#52 = APPROVAL_PERSON_ORGANIZATION ( #113, #79, #129 ) ;
#53 = CC_DESIGN_PERSON_AND_ORGANIZATION_ASSIGNMENT ( #150, #118, ( #28 ) ) ;
#54 = EDGE_CURVE ( 'NONE', #199, #190, #238, .T. ) ;
#55 = CC_DESIGN_PERSON_AND_ORGANIZATION_ASSIGNMENT ( #130, #138, ( #28 ) ) ;
#56 = LOCAL_TIME ( 20, 28, 52.00000000000000000, #33 ) ;
#57 = CC_DESIGN_PERSON_AND_ORGANIZATION_ASSIGNMENT ( #132, #133, ( #77 ) ) ;
#58 = LOCAL_TIME ( 20, 28, 52.00000000000000000, #23 ) ;
#59 = LOCAL_TIME ( 20, 28, 52.00000000000000000, #10 ) ;
#60 = CC_DESIGN_DATE_AND_TIME_ASSIGNMENT ( #121, #151, ( #24 ) ) ;
#61 = APPROVAL ( #142, 'UNSPECIFIED' ) ;
#62 = CIRCLE ( 'NONE', #16, 5.000000000000000000 ) ;
#63 = CC_DESIGN_PERSON_AND_ORGANIZATION_ASSIGNMENT ( #126, #155, ( #90 ) ) ;
#64 = EDGE_CURVE ( 'NONE', #186, #179, #231, .T. ) ;
#65 = EDGE_CURVE ( 'NONE', #181, #186, #223, .T. ) ;
#66 = APPROVAL ( #141, 'UNSPECIFIED' ) ;
#67 = CC_DESIGN_DATE_AND_TIME_ASSIGNMENT ( #131, #119, ( #77 ) ) ;
#68 = EDGE_CURVE ( 'NONE', #186, #187, #215, .T. ) ;
#69 = LOCAL_TIME ( 20, 28, 52.00000000000000000, #34 ) ;
#70 = EDGE_CURVE ( 'NONE', #187, #199, #62, .T. ) ;
#71 = PRODUCT_RELATED_PRODUCT_CATEGORY ( 'detail', '', ( #90 ) ) ;
#72 = LOCAL_TIME ( 20, 28, 52.00000000000000000, #43 ) ;
#73 = EDGE_CURVE ( 'NONE', #191, #179, #169, .T. ) ;
#74 = ADVANCED_FACE ( 'NONE', ( #36 ), #211, .F. ) ;
#75 = EDGE_CURVE ( 'NONE', #199, #181, #208, .T. ) ;
#76 = EDGE_CURVE ( 'NONE', #194, #190, #82, .T. ) ;
#77 = PRODUCT_DEFINITION ( 'UNKNOWN', '', #28, #93 ) ;
#78 = EDGE_CURVE ( 'NONE', #179, #194, #177, .T. ) ;
#79 = APPROVAL ( #116, 'UNSPECIFIED' ) ;
#80 = ADVANCED_FACE ( 'NONE', ( #42 ), #234, .F. ) ;
#81 = EDGE_CURVE ( 'NONE', #187, #194, #158, .T. ) ;
#82 = CIRCLE ( 'NONE', #46, 5.000000000000000000 ) ;
#83 = EDGE_CURVE ( 'NONE', #181, #191, #162, .T. ) ;
#84 = ADVANCED_FACE ( 'NONE', ( #44 ), #161, .F. ) ;
#85 = ADVANCED_FACE ( 'NONE', ( #47 ), #167, .T. ) ;
#86 = ADVANCED_FACE ( 'NONE', ( #15 ), #104, .F. ) ;
#87 = EDGE_CURVE ( 'NONE', #190, #191, #101, .T. ) ;
#88 = CC_DESIGN_PERSON_AND_ORGANIZATION_ASSIGNMENT ( #122, #115, ( #24 ) ) ;
#89 = ADVANCED_FACE ( 'NONE', ( #51 ), #7, .T. ) ;
#90 = PRODUCT ( 'sone3D', 'sone3D', '', ( #117 ) ) ;
#91 =( GEOMETRIC_REPRESENTATION_CONTEXT ( 3 ) GLOBAL_UNCERTAINTY_ASSIGNED_CONTEXT ( ( #2 ) ) GLOBAL_UNIT_ASSIGNED_CONTEXT ( ( #102, #145, #147 ) ) REPRESENTATION_CONTEXT ( 'NONE', 'WORKASPACE' ) );
#92 = PRODUCT_DEFINITION_SHAPE ( 'NONE', 'NONE',  #77 ) ;
#93 = DESIGN_CONTEXT ( 'detailed design', #4, 'design' ) ;
#94 = MANIFOLD_SOLID_BREP ( 'ÎÞ½ - µoµ1', #45 ) ;
#95 = CARTESIAN_POINT ( 'NONE',  ( -5.000000000000000000, 0.0000000000000000000, 500.0000000000000000 ) ) ;
#96 = CARTESIAN_POINT ( 'NONE',  ( 5.000000000000000000, 1.836970198721029600E-015, -500.0000000000000000 ) ) ;
#97 = DIRECTION ( 'NONE',  ( -1.000000000000000000, 0.0000000000000000000, 0.0000000000000000000 ) ) ;
#98 = DIRECTION ( 'NONE',  ( -0.0000000000000000000, -0.0000000000000000000, -1.000000000000000000 ) ) ;
#99 = CARTESIAN_POINT ( 'NONE',  ( -9.184850993605149900E-016, 5.000000000000000900, 500.0000000000000000 ) ) ;
#100 = DIRECTION ( 'NONE',  ( 1.734723475976806800E-016, -1.000000000000000000, -0.0000000000000000000 ) ) ;
#101 = LINE ( 'NONE', #108, #26 ) ;
#102 =( LENGTH_UNIT ( ) NAMED_UNIT ( * ) SI_UNIT ( .MILLI., .METRE. ) );
#103 = DIRECTION ( 'NONE',  ( -1.000000000000000000, -1.836970198721029700E-016, 0.0000000000000000000 ) ) ;
#104 = PLANE ( 'NONE',  #27 ) ;
#105 = DIRECTION ( 'NONE',  ( -1.836970198721029700E-016, 1.000000000000000000, 0.0000000000000000000 ) ) ;
#106 = CARTESIAN_POINT ( 'NONE',  ( -5.000000000000000000, 0.0000000000000000000, 500.0000000000000000 ) ) ;
#107 = DIRECTION ( 'NONE',  ( 0.0000000000000000000, 0.0000000000000000000, 1.000000000000000000 ) ) ;
#108 = CARTESIAN_POINT ( 'NONE',  ( -5.000000000000000000, 0.0000000000000000000, -500.0000000000000000 ) ) ;
#109 = DIRECTION ( 'NONE',  ( 1.000000000000000000, 0.0000000000000000000, -0.0000000000000000000 ) ) ;
#110 = DIRECTION ( 'NONE',  ( 0.0000000000000000000, 0.0000000000000000000, 1.000000000000000000 ) ) ;
#111 = CARTESIAN_POINT ( 'NONE',  ( 0.0000000000000000000, 0.0000000000000000000, 0.0000000000000000000 ) ) ;
#112 = APPROVAL_ROLE ( '' ) ;
#113 = PERSON_AND_ORGANIZATION ( #1, #41 ) ;
#114 = APPROVAL_DATE_TIME ( #127, #79 ) ;
#115 = PERSON_AND_ORGANIZATION_ROLE ( 'classification_officer' ) ;
#116 = APPROVAL_STATUS ( 'not_yet_approved' ) ;
#117 = MECHANICAL_CONTEXT ( 'NONE', #5, 'mechanical' ) ;
#118 = PERSON_AND_ORGANIZATION_ROLE ( 'design_supplier' ) ;
#119 = DATE_TIME_ROLE ( 'creation_date' ) ;
#120 = DATE_AND_TIME ( #49, #59 ) ;
#121 = DATE_AND_TIME ( #13, #58 ) ;
#122 = PERSON_AND_ORGANIZATION ( #1, #41 ) ;
#123 = APPROVAL_DATE_TIME ( #120, #66 ) ;
#124 = PERSON_AND_ORGANIZATION ( #1, #41 ) ;
#125 = DIRECTION ( 'NONE',  ( 1.000000000000000000, 0.0000000000000000000, 0.0000000000000000000 ) ) ;
#126 = PERSON_AND_ORGANIZATION ( #1, #41 ) ;
#127 = DATE_AND_TIME ( #22, #56 ) ;
#128 = SECURITY_CLASSIFICATION_LEVEL ( 'unclassified' ) ;
#129 = APPROVAL_ROLE ( '' ) ;
#130 = PERSON_AND_ORGANIZATION ( #1, #41 ) ;
#131 = DATE_AND_TIME ( #48, #69 ) ;
#132 = PERSON_AND_ORGANIZATION ( #1, #41 ) ;
#133 = PERSON_AND_ORGANIZATION_ROLE ( 'creator' ) ;
#134 = APPLICATION_PROTOCOL_DEFINITION ( 'international standard', 'config_control_design', 1994, #4 ) ;
#135 = APPROVAL_DATE_TIME ( #136, #61 ) ;
#136 = DATE_AND_TIME ( #32, #72 ) ;
#137 = APPROVAL_ROLE ( '' ) ;
#138 = PERSON_AND_ORGANIZATION_ROLE ( 'creator' ) ;
#139 = CARTESIAN_POINT ( 'NONE',  ( -9.184850993605149900E-016, 5.000000000000000900, -500.0000000000000000 ) ) ;
#140 = PERSON_AND_ORGANIZATION ( #1, #41 ) ;
#141 = APPROVAL_STATUS ( 'not_yet_approved' ) ;
#142 = APPROVAL_STATUS ( 'not_yet_approved' ) ;
#143 = CARTESIAN_POINT ( 'NONE',  ( 4.999999999999999100, 5.000000000000002700, 500.0000000000000000 ) ) ;
#144 = CARTESIAN_POINT ( 'NONE',  ( 5.000000000000000000, 1.836970198721029600E-015, 500.0000000000000000 ) ) ;
#145 =( NAMED_UNIT ( * ) PLANE_ANGLE_UNIT ( ) SI_UNIT ( $, .RADIAN. ) );
#146 = CARTESIAN_POINT ( 'NONE',  ( -5.000000000000000900, 5.000000000000001800, -500.0000000000000000 ) ) ;
#147 =( NAMED_UNIT ( * ) SI_UNIT ( $, .STERADIAN. ) SOLID_ANGLE_UNIT ( ) );
#148 = APPLICATION_PROTOCOL_DEFINITION ( 'international standard', 'config_control_design', 1994, #5 ) ;
#149 = CARTESIAN_POINT ( 'NONE',  ( -5.000000000000000000, 0.0000000000000000000, -500.0000000000000000 ) ) ;
#150 = PERSON_AND_ORGANIZATION ( #1, #41 ) ;
#151 = DATE_TIME_ROLE ( 'classification_date' ) ;
#152 = SHAPE_DEFINITION_REPRESENTATION ( #92, #3 ) ;
#153 = CARTESIAN_POINT ( 'NONE',  ( -5.000000000000000900, 5.000000000000001800, 500.0000000000000000 ) ) ;
#154 = CARTESIAN_POINT ( 'NONE',  ( 4.999999999999999100, 5.000000000000002700, -500.0000000000000000 ) ) ;
#155 = PERSON_AND_ORGANIZATION_ROLE ( 'design_owner' ) ;
#156 = DIRECTION ( 'NONE',  ( -1.000000000000000000, -1.734723475976806800E-016, 0.0000000000000000000 ) ) ;
#157 = DIRECTION ( 'NONE',  ( 1.734723475976806800E-016, -1.000000000000000000, 0.0000000000000000000 ) ) ;
#158 = LINE ( 'NONE', #159, #21 ) ;
#159 = CARTESIAN_POINT ( 'NONE',  ( 4.999999999999999100, 5.000000000000002700, 500.0000000000000000 ) ) ;
#160 = DIRECTION ( 'NONE',  ( -0.0000000000000000000, -0.0000000000000000000, -1.000000000000000000 ) ) ;
#161 = PLANE ( 'NONE',  #19 ) ;
#162 = LINE ( 'NONE', #163, #37 ) ;
#163 = CARTESIAN_POINT ( 'NONE',  ( -5.000000000000000000, 0.0000000000000000000, 500.0000000000000000 ) ) ;
#164 = DIRECTION ( 'NONE',  ( -0.0000000000000000000, -0.0000000000000000000, -1.000000000000000000 ) ) ;
#165 = DIRECTION ( 'NONE',  ( 0.0000000000000000000, 0.0000000000000000000, 1.000000000000000000 ) ) ;
#166 = DIRECTION ( 'NONE',  ( 1.000000000000000000, 0.0000000000000000000, -0.0000000000000000000 ) ) ;
#167 = PLANE ( 'NONE',  #39 ) ;
#168 = CARTESIAN_POINT ( 'NONE',  ( -9.184850993605149900E-016, 5.000000000000000900, 500.0000000000000000 ) ) ;
#169 = LINE ( 'NONE', #200, #29 ) ;
#170 = ORIENTED_EDGE ( 'NONE', *, *, #65, .F. ) ;
#171 = ORIENTED_EDGE ( 'NONE', *, *, #76, .F. ) ;
#172 = ORIENTED_EDGE ( 'NONE', *, *, #87, .T. ) ;
#173 = CARTESIAN_POINT ( 'NONE',  ( -9.184850993605149900E-016, 5.000000000000000900, -500.0000000000000000 ) ) ;
#174 = ORIENTED_EDGE ( 'NONE', *, *, #68, .T. ) ;
#175 = ORIENTED_EDGE ( 'NONE', *, *, #64, .T. ) ;
#176 = DIRECTION ( 'NONE',  ( 1.734723475976806800E-016, -1.000000000000000000, -0.0000000000000000000 ) ) ;
#177 = LINE ( 'NONE', #183, #30 ) ;
#178 = ORIENTED_EDGE ( 'NONE', *, *, #81, .F. ) ;
#179 = VERTEX_POINT ( 'NONE', #96 ) ;
#180 = CARTESIAN_POINT ( 'NONE',  ( 5.000000000000000000, 1.836970198721029600E-015, 500.0000000000000000 ) ) ;
#181 = VERTEX_POINT ( 'NONE', #95 ) ;
#182 = ORIENTED_EDGE ( 'NONE', *, *, #81, .T. ) ;
#183 = CARTESIAN_POINT ( 'NONE',  ( 5.000000000000000000, 1.836970198721029600E-015, -500.0000000000000000 ) ) ;
#184 = ORIENTED_EDGE ( 'NONE', *, *, #65, .T. ) ;
#185 = ORIENTED_EDGE ( 'NONE', *, *, #83, .T. ) ;
#186 = VERTEX_POINT ( 'NONE', #144 ) ;
#187 = VERTEX_POINT ( 'NONE', #143 ) ;
#188 = DIRECTION ( 'NONE',  ( -1.734723475976806800E-016, 1.000000000000000000, 0.0000000000000000000 ) ) ;
#189 = ORIENTED_EDGE ( 'NONE', *, *, #76, .T. ) ;
#190 = VERTEX_POINT ( 'NONE', #146 ) ;
#191 = VERTEX_POINT ( 'NONE', #149 ) ;
#192 = ORIENTED_EDGE ( 'NONE', *, *, #73, .F. ) ;
#193 = DIRECTION ( 'NONE',  ( 1.000000000000000000, 1.836970198721029700E-016, 0.0000000000000000000 ) ) ;
#194 = VERTEX_POINT ( 'NONE', #154 ) ;
#195 = ORIENTED_EDGE ( 'NONE', *, *, #70, .T. ) ;
#196 = ORIENTED_EDGE ( 'NONE', *, *, #64, .F. ) ;
#197 = ORIENTED_EDGE ( 'NONE', *, *, #78, .T. ) ;
#198 = ORIENTED_EDGE ( 'NONE', *, *, #87, .F. ) ;
#199 = VERTEX_POINT ( 'NONE', #153 ) ;
#200 = CARTESIAN_POINT ( 'NONE',  ( -5.000000000000000000, 0.0000000000000000000, -500.0000000000000000 ) ) ;
#201 = ORIENTED_EDGE ( 'NONE', *, *, #78, .F. ) ;
#202 = DIRECTION ( 'NONE',  ( -1.734723475976806800E-016, 1.000000000000000000, 0.0000000000000000000 ) ) ;
#203 = DIRECTION ( 'NONE',  ( 1.000000000000000000, 1.734723475976806800E-016, -0.0000000000000000000 ) ) ;
#204 = CARTESIAN_POINT ( 'NONE',  ( -5.000000000000000000, 0.0000000000000000000, 500.0000000000000000 ) ) ;
#205 = ORIENTED_EDGE ( 'NONE', *, *, #70, .F. ) ;
#206 = ORIENTED_EDGE ( 'NONE', *, *, #54, .T. ) ;
#207 = ORIENTED_EDGE ( 'NONE', *, *, #75, .F. ) ;
#208 = LINE ( 'NONE', #204, #20 ) ;
#209 = DIRECTION ( 'NONE',  ( 1.000000000000000000, 0.0000000000000000000, 0.0000000000000000000 ) ) ;
#210 = CARTESIAN_POINT ( 'NONE',  ( -5.000000000000000000, 0.0000000000000000000, 500.0000000000000000 ) ) ;
#211 = PLANE ( 'NONE',  #35 ) ;
#212 = DIRECTION ( 'NONE',  ( -1.734723475976806800E-016, 1.000000000000000000, 0.0000000000000000000 ) ) ;
#213 = CARTESIAN_POINT ( 'NONE',  ( 5.000000000000000000, 1.836970198721029600E-015, 500.0000000000000000 ) ) ;
#214 = CARTESIAN_POINT ( 'NONE',  ( 5.000000000000000000, 1.836970198721029600E-015, 500.0000000000000000 ) ) ;
#215 = LINE ( 'NONE', #214, #14 ) ;
#216 = ORIENTED_EDGE ( 'NONE', *, *, #73, .T. ) ;
#217 = DIRECTION ( 'NONE',  ( 1.000000000000000000, 1.836970198721029700E-016, 0.0000000000000000000 ) ) ;
#218 = CARTESIAN_POINT ( 'NONE',  ( -5.000000000000000000, 0.0000000000000000000, 500.0000000000000000 ) ) ;
#219 = ORIENTED_EDGE ( 'NONE', *, *, #54, .F. ) ;
#220 = DIRECTION ( 'NONE',  ( 0.0000000000000000000, 0.0000000000000000000, 1.000000000000000000 ) ) ;
#221 = EDGE_LOOP ( 'NONE', ( #172, #224, #207, #206 ) ) ;
#222 = ORIENTED_EDGE ( 'NONE', *, *, #68, .F. ) ;
#223 = LINE ( 'NONE', #218, #17 ) ;
#224 = ORIENTED_EDGE ( 'NONE', *, *, #83, .F. ) ;
#225 = EDGE_LOOP ( 'NONE', ( #216, #196, #170, #185 ) ) ;
#226 = CARTESIAN_POINT ( 'NONE',  ( -5.000000000000000900, 5.000000000000001800, 500.0000000000000000 ) ) ;
#227 = DIRECTION ( 'NONE',  ( 1.000000000000000000, 0.0000000000000000000, 0.0000000000000000000 ) ) ;
#228 = EDGE_LOOP ( 'NONE', ( #189, #219, #205, #182 ) ) ;
#229 = DIRECTION ( 'NONE',  ( -0.0000000000000000000, -0.0000000000000000000, -1.000000000000000000 ) ) ;
#230 = CARTESIAN_POINT ( 'NONE',  ( -9.184850993605149900E-016, 5.000000000000000900, 500.0000000000000000 ) ) ;
#231 = LINE ( 'NONE', #213, #50 ) ;
#232 = DIRECTION ( 'NONE',  ( 0.0000000000000000000, 0.0000000000000000000, 1.000000000000000000 ) ) ;
#233 = EDGE_LOOP ( 'NONE', ( #235, #184, #174, #195 ) ) ;
#234 = PLANE ( 'NONE',  #11 ) ;
#235 = ORIENTED_EDGE ( 'NONE', *, *, #75, .T. ) ;
#236 = EDGE_LOOP ( 'NONE', ( #198, #171, #201, #192 ) ) ;
#237 = EDGE_LOOP ( 'NONE', ( #197, #178, #222, #175 ) ) ;
#238 = LINE ( 'NONE', #226, #31 ) ;
#239 = DIRECTION ( 'NONE',  ( -0.0000000000000000000, -0.0000000000000000000, -1.000000000000000000 ) ) ;
ENDSEC;
END-ISO-10303-21;
