ISO-10303-21;
HEADER;
FILE_DESCRIPTION (( 'STEP AP203' ),
    '1' );
FILE_NAME ('sone3D.STEP',
    '2015-08-11T10:19:47',
    ( '' ),
    ( '' ),
    'SwSTEP 2.0',
    'SolidWorks 2012',
    '' );
FILE_SCHEMA (( 'CONFIG_CONTROL_DESIGN' ));
ENDSEC;

DATA;
#1 = MANIFOLD_SOLID_BREP ( 'ÎÞ½ - µoµ1', #50 ) ;
#2 = DESIGN_CONTEXT ( 'detailed design', #91, 'design' ) ;
#3 = PRODUCT_DEFINITION_SHAPE ( 'NONE', 'NONE',  #31 ) ;
#4 = EDGE_CURVE ( 'NONE', #134, #139, #150, .T. ) ;
#5 = LOCAL_TIME ( 19, 19, 47.00000000000000000, #68 ) ;
#6 = LOCAL_TIME ( 19, 19, 47.00000000000000000, #56 ) ;
#7 = PRODUCT_RELATED_PRODUCT_CATEGORY ( 'detail', '', ( #42 ) ) ;
#8 = CC_DESIGN_PERSON_AND_ORGANIZATION_ASSIGNMENT ( #225, #190, ( #81 ) ) ;
#9 = LOCAL_TIME ( 19, 19, 47.00000000000000000, #65 ) ;
#10 = CC_DESIGN_DATE_AND_TIME_ASSIGNMENT ( #197, #201, ( #81 ) ) ;
#11 = CC_DESIGN_PERSON_AND_ORGANIZATION_ASSIGNMENT ( #214, #196, ( #66 ) ) ;
#12 = APPROVAL ( #230, 'UNSPECIFIED' ) ;
#13 = APPROVAL ( #224, 'UNSPECIFIED' ) ;
#14 = LOCAL_TIME ( 19, 19, 47.00000000000000000, #67 ) ;
#15 = CC_DESIGN_DATE_AND_TIME_ASSIGNMENT ( #203, #209, ( #31 ) ) ;
#16 = APPROVAL ( #213, 'UNSPECIFIED' ) ;
#17 = EDGE_CURVE ( 'NONE', #135, #140, #156, .T. ) ;
#18 = ADVANCED_FACE ( 'NONE', ( #82 ), #155, .F. ) ;
#19 = ADVANCED_FACE ( 'NONE', ( #73 ), #160, .T. ) ;
#20 = EDGE_CURVE ( 'NONE', #138, #137, #166, .T. ) ;
#21 = EDGE_CURVE ( 'NONE', #140, #134, #170, .T. ) ;
#22 = EDGE_CURVE ( 'NONE', #140, #136, #173, .T. ) ;
#23 = EDGE_CURVE ( 'NONE', #135, #146, #176, .T. ) ;
#24 = EDGE_CURVE ( 'NONE', #138, #135, #179, .T. ) ;
#25 = EDGE_CURVE ( 'NONE', #139, #137, #191, .T. ) ;
#26 = ADVANCED_FACE ( 'NONE', ( #46 ), #169, .F. ) ;
#27 = EDGE_CURVE ( 'NONE', #146, #134, #183, .T. ) ;
#28 = EDGE_CURVE ( 'NONE', #136, #138, #199, .T. ) ;
#29 = EDGE_CURVE ( 'NONE', #137, #146, #204, .T. ) ;
#30 = EDGE_CURVE ( 'NONE', #136, #139, #194, .T. ) ;
#31 = PRODUCT_DEFINITION ( 'UNKNOWN', '', #66, #2 ) ;
#32 = CC_DESIGN_PERSON_AND_ORGANIZATION_ASSIGNMENT ( #222, #231, ( #66 ) ) ;
#33 = LOCAL_TIME ( 19, 19, 47.00000000000000000, #57 ) ;
#34 = CC_DESIGN_PERSON_AND_ORGANIZATION_ASSIGNMENT ( #218, #223, ( #31 ) ) ;
#35 = CC_DESIGN_PERSON_AND_ORGANIZATION_ASSIGNMENT ( #202, #207, ( #42 ) ) ;
#36 = ADVANCED_FACE ( 'NONE', ( #80 ), #192, .F. ) ;
#37 = ADVANCED_FACE ( 'NONE', ( #53 ), #111, .F. ) ;
#38 = ADVANCED_FACE ( 'NONE', ( #63 ), #107, .F. ) ;
#39 = PERSON ( 'UNSPECIFIED', 'UNSPECIFIED', 'UNSPECIFIED', ('UNSPECIFIED'), ('UNSPECIFIED'), ('UNSPECIFIED') ) ;
#40 = UNCERTAINTY_MEASURE_WITH_UNIT (LENGTH_MEASURE( 1.000000000000000100E-005 ), #92, 'distance_accuracy_value', 'NONE');
#41 = ADVANCED_BREP_SHAPE_REPRESENTATION ( 'sone3D', ( #1, #72 ), #43 ) ;
#42 = PRODUCT ( 'sone3D', 'sone3D', '', ( #232 ) ) ;
#43 =( GEOMETRIC_REPRESENTATION_CONTEXT ( 3 ) GLOBAL_UNCERTAINTY_ASSIGNED_CONTEXT ( ( #40 ) ) GLOBAL_UNIT_ASSIGNED_CONTEXT ( ( #92, #229, #235 ) ) REPRESENTATION_CONTEXT ( 'NONE', 'WORKASPACE' ) );
#44 = VECTOR ( 'NONE', #168, 1000.000000000000000 ) ;
#45 = VECTOR ( 'NONE', #195, 1000.000000000000000 ) ;
#46 = FACE_OUTER_BOUND ( 'NONE', #144, .T. ) ;
#47 = VECTOR ( 'NONE', #175, 1000.000000000000000 ) ;
#48 = CC_DESIGN_SECURITY_CLASSIFICATION ( #81, ( #66 ) ) ;
#49 = APPROVAL_PERSON_ORGANIZATION ( #212, #13, #206 ) ;
#50 = CLOSED_SHELL ( 'NONE', ( #38, #18, #37, #36, #19, #26 ) ) ;
#51 = VECTOR ( 'NONE', #153, 1000.000000000000000 ) ;
#52 = VECTOR ( 'NONE', #113, 1000.000000000000000 ) ;
#53 = FACE_OUTER_BOUND ( 'NONE', #145, .T. ) ;
#54 = VECTOR ( 'NONE', #198, 1000.000000000000000 ) ;
#55 = CC_DESIGN_APPROVAL ( #16, ( #66 ) ) ;
#56 = COORDINATED_UNIVERSAL_TIME_OFFSET ( 9, 0, .AHEAD. ) ;
#57 = COORDINATED_UNIVERSAL_TIME_OFFSET ( 9, 0, .AHEAD. ) ;
#58 = VECTOR ( 'NONE', #178, 1000.000000000000000 ) ;
#59 = AXIS2_PLACEMENT_3D ( 'NONE', #161, #162, #163 ) ;
#60 = ORGANIZATION ( 'UNSPECIFIED', 'UNSPECIFIED', '' ) ;
#61 = VECTOR ( 'NONE', #172, 1000.000000000000000 ) ;
#62 = AXIS2_PLACEMENT_3D ( 'NONE', #100, #101, #102 ) ;
#63 = FACE_OUTER_BOUND ( 'NONE', #142, .T. ) ;
#64 = VECTOR ( 'NONE', #181, 1000.000000000000000 ) ;
#65 = COORDINATED_UNIVERSAL_TIME_OFFSET ( 9, 0, .AHEAD. ) ;
#66 = PRODUCT_DEFINITION_FORMATION_WITH_SPECIFIED_SOURCE ( 'ANY', '', #42, .NOT_KNOWN. ) ;
#67 = COORDINATED_UNIVERSAL_TIME_OFFSET ( 9, 0, .AHEAD. ) ;
#68 = COORDINATED_UNIVERSAL_TIME_OFFSET ( 9, 0, .AHEAD. ) ;
#69 = CC_DESIGN_APPROVAL ( #12, ( #81 ) ) ;
#70 = VECTOR ( 'NONE', #237, 1000.000000000000000 ) ;
#71 = CALENDAR_DATE ( 2015, 11, 8 ) ;
#72 = AXIS2_PLACEMENT_3D ( 'NONE', #189, #228, #227 ) ;
#73 = FACE_OUTER_BOUND ( 'NONE', #147, .T. ) ;
#74 = CALENDAR_DATE ( 2015, 11, 8 ) ;
#75 = AXIS2_PLACEMENT_3D ( 'NONE', #104, #105, #106 ) ;
#76 = AXIS2_PLACEMENT_3D ( 'NONE', #165, #158, #159 ) ;
#77 = CALENDAR_DATE ( 2015, 11, 8 ) ;
#78 = AXIS2_PLACEMENT_3D ( 'NONE', #182, #185, #186 ) ;
#79 = CC_DESIGN_APPROVAL ( #13, ( #31 ) ) ;
#80 = FACE_OUTER_BOUND ( 'NONE', #143, .T. ) ;
#81 = SECURITY_CLASSIFICATION ( '', '', #226 ) ;
#82 = FACE_OUTER_BOUND ( 'NONE', #141, .T. ) ;
#83 = CALENDAR_DATE ( 2015, 11, 8 ) ;
#84 = CALENDAR_DATE ( 2015, 11, 8 ) ;
#85 = APPROVAL_PERSON_ORGANIZATION ( #234, #16, #208 ) ;
#86 = VECTOR ( 'NONE', #188, 1000.000000000000000 ) ;
#87 = AXIS2_PLACEMENT_3D ( 'NONE', #108, #109, #110 ) ;
#88 = APPROVAL_PERSON_ORGANIZATION ( #217, #12, #233 ) ;
#89 = VECTOR ( 'NONE', #164, 1000.000000000000000 ) ;
#90 = APPLICATION_CONTEXT ( 'configuration controlled 3d designs of mechanical parts and assemblies' ) ;
#91 = APPLICATION_CONTEXT ( 'configuration controlled 3d designs of mechanical parts and assemblies' ) ;
#92 =( LENGTH_UNIT ( ) NAMED_UNIT ( * ) SI_UNIT ( .MILLI., .METRE. ) );
#93 = CARTESIAN_POINT ( 'NONE',  ( 3.999999999999998200, 4.000000000000001800, -500.0000000000000000 ) ) ;
#94 = CARTESIAN_POINT ( 'NONE',  ( 4.000000000000000000, -3.999999999999998200, 500.0000000000000000 ) ) ;
#95 = CARTESIAN_POINT ( 'NONE',  ( -3.999999999999998200, -3.999999999999998200, -500.0000000000000000 ) ) ;
#96 = CARTESIAN_POINT ( 'NONE',  ( -3.999999999999998200, -3.999999999999998200, 500.0000000000000000 ) ) ;
#97 = CARTESIAN_POINT ( 'NONE',  ( 3.999999999999998200, 4.000000000000001800, 500.0000000000000000 ) ) ;
#98 = CARTESIAN_POINT ( 'NONE',  ( -4.000000000000000000, 4.000000000000001800, -500.0000000000000000 ) ) ;
#99 = CARTESIAN_POINT ( 'NONE',  ( -4.000000000000000000, 4.000000000000001800, 500.0000000000000000 ) ) ;
#100 = CARTESIAN_POINT ( 'NONE',  ( -4.000000000000000000, 4.000000000000001800, 500.0000000000000000 ) ) ;
#101 = DIRECTION ( 'NONE',  ( 1.000000000000000000, 2.168404344971008900E-016, -0.0000000000000000000 ) ) ;
#102 = DIRECTION ( 'NONE',  ( -2.168404344971008900E-016, 1.000000000000000000, 0.0000000000000000000 ) ) ;
#103 = CARTESIAN_POINT ( 'NONE',  ( 4.000000000000000000, -3.999999999999998200, -500.0000000000000000 ) ) ;
#104 = CARTESIAN_POINT ( 'NONE',  ( 3.999999999999998200, 4.000000000000001800, 500.0000000000000000 ) ) ;
#105 = DIRECTION ( 'NONE',  ( -1.000000000000000000, -2.168404344971008900E-016, 0.0000000000000000000 ) ) ;
#106 = DIRECTION ( 'NONE',  ( 2.168404344971008900E-016, -1.000000000000000000, 0.0000000000000000000 ) ) ;
#107 = PLANE ( 'NONE',  #62 ) ;
#108 = CARTESIAN_POINT ( 'NONE',  ( -4.000000000000000000, 4.000000000000001800, 500.0000000000000000 ) ) ;
#109 = DIRECTION ( 'NONE',  ( 0.0000000000000000000, -1.000000000000000000, 0.0000000000000000000 ) ) ;
#110 = DIRECTION ( 'NONE',  ( 0.0000000000000000000, -0.0000000000000000000, -1.000000000000000000 ) ) ;
#111 = PLANE ( 'NONE',  #75 ) ;
#112 = CARTESIAN_POINT ( 'NONE',  ( 3.999999999999998200, 4.000000000000001800, 500.0000000000000000 ) ) ;
#113 = DIRECTION ( 'NONE',  ( -0.0000000000000000000, -0.0000000000000000000, -1.000000000000000000 ) ) ;
#114 = ORIENTED_EDGE ( 'NONE', *, *, #4, .F. ) ;
#115 = ORIENTED_EDGE ( 'NONE', *, *, #25, .F. ) ;
#116 = ORIENTED_EDGE ( 'NONE', *, *, #23, .T. ) ;
#117 = ORIENTED_EDGE ( 'NONE', *, *, #4, .T. ) ;
#118 = ORIENTED_EDGE ( 'NONE', *, *, #22, .F. ) ;
#119 = ORIENTED_EDGE ( 'NONE', *, *, #30, .F. ) ;
#120 = ORIENTED_EDGE ( 'NONE', *, *, #29, .T. ) ;
#121 = ORIENTED_EDGE ( 'NONE', *, *, #23, .F. ) ;
#122 = ORIENTED_EDGE ( 'NONE', *, *, #21, .F. ) ;
#123 = ORIENTED_EDGE ( 'NONE', *, *, #27, .T. ) ;
#124 = ORIENTED_EDGE ( 'NONE', *, *, #20, .T. ) ;
#125 = ORIENTED_EDGE ( 'NONE', *, *, #27, .F. ) ;
#126 = ORIENTED_EDGE ( 'NONE', *, *, #29, .F. ) ;
#127 = ORIENTED_EDGE ( 'NONE', *, *, #22, .T. ) ;
#128 = ORIENTED_EDGE ( 'NONE', *, *, #17, .T. ) ;
#129 = ORIENTED_EDGE ( 'NONE', *, *, #30, .T. ) ;
#130 = ORIENTED_EDGE ( 'NONE', *, *, #24, .T. ) ;
#131 = ORIENTED_EDGE ( 'NONE', *, *, #21, .T. ) ;
#132 = ORIENTED_EDGE ( 'NONE', *, *, #28, .F. ) ;
#133 = ORIENTED_EDGE ( 'NONE', *, *, #25, .T. ) ;
#134 = VERTEX_POINT ( 'NONE', #103 ) ;
#135 = VERTEX_POINT ( 'NONE', #96 ) ;
#136 = VERTEX_POINT ( 'NONE', #97 ) ;
#137 = VERTEX_POINT ( 'NONE', #98 ) ;
#138 = VERTEX_POINT ( 'NONE', #99 ) ;
#139 = VERTEX_POINT ( 'NONE', #93 ) ;
#140 = VERTEX_POINT ( 'NONE', #94 ) ;
#141 = EDGE_LOOP ( 'NONE', ( #123, #122, #154, #116 ) ) ;
#142 = EDGE_LOOP ( 'NONE', ( #120, #121, #152, #124 ) ) ;
#143 = EDGE_LOOP ( 'NONE', ( #133, #149, #132, #129 ) ) ;
#144 = EDGE_LOOP ( 'NONE', ( #126, #115, #114, #125 ) ) ;
#145 = EDGE_LOOP ( 'NONE', ( #117, #119, #118, #131 ) ) ;
#146 = VERTEX_POINT ( 'NONE', #95 ) ;
#147 = EDGE_LOOP ( 'NONE', ( #130, #128, #127, #148 ) ) ;
#148 = ORIENTED_EDGE ( 'NONE', *, *, #28, .T. ) ;
#149 = ORIENTED_EDGE ( 'NONE', *, *, #20, .F. ) ;
#150 = LINE ( 'NONE', #151, #51 ) ;
#151 = CARTESIAN_POINT ( 'NONE',  ( 3.999999999999998200, 4.000000000000001800, -500.0000000000000000 ) ) ;
#152 = ORIENTED_EDGE ( 'NONE', *, *, #24, .F. ) ;
#153 = DIRECTION ( 'NONE',  ( -2.168404344971008900E-016, 1.000000000000000000, -0.0000000000000000000 ) ) ;
#154 = ORIENTED_EDGE ( 'NONE', *, *, #17, .F. ) ;
#155 = PLANE ( 'NONE',  #76 ) ;
#156 = LINE ( 'NONE', #157, #89 ) ;
#157 = CARTESIAN_POINT ( 'NONE',  ( -3.999999999999998200, -3.999999999999998200, 500.0000000000000000 ) ) ;
#158 = DIRECTION ( 'NONE',  ( 0.0000000000000000000, 1.000000000000000000, 0.0000000000000000000 ) ) ;
#159 = DIRECTION ( 'NONE',  ( 0.0000000000000000000, -0.0000000000000000000, 1.000000000000000000 ) ) ;
#160 = PLANE ( 'NONE',  #59 ) ;
#161 = CARTESIAN_POINT ( 'NONE',  ( 0.0000000000000000000, 0.0000000000000000000, 500.0000000000000000 ) ) ;
#162 = DIRECTION ( 'NONE',  ( -0.0000000000000000000, 0.0000000000000000000, 1.000000000000000000 ) ) ;
#163 = DIRECTION ( 'NONE',  ( 1.000000000000000000, 0.0000000000000000000, 0.0000000000000000000 ) ) ;
#164 = DIRECTION ( 'NONE',  ( 1.000000000000000000, 0.0000000000000000000, 0.0000000000000000000 ) ) ;
#165 = CARTESIAN_POINT ( 'NONE',  ( -3.999999999999998200, -3.999999999999998200, 500.0000000000000000 ) ) ;
#166 = LINE ( 'NONE', #167, #44 ) ;
#167 = CARTESIAN_POINT ( 'NONE',  ( -4.000000000000000000, 4.000000000000001800, 500.0000000000000000 ) ) ;
#168 = DIRECTION ( 'NONE',  ( -0.0000000000000000000, -0.0000000000000000000, -1.000000000000000000 ) ) ;
#169 = PLANE ( 'NONE',  #78 ) ;
#170 = LINE ( 'NONE', #171, #61 ) ;
#171 = CARTESIAN_POINT ( 'NONE',  ( 4.000000000000000000, -3.999999999999998200, 500.0000000000000000 ) ) ;
#172 = DIRECTION ( 'NONE',  ( -0.0000000000000000000, -0.0000000000000000000, -1.000000000000000000 ) ) ;
#173 = LINE ( 'NONE', #174, #47 ) ;
#174 = CARTESIAN_POINT ( 'NONE',  ( 3.999999999999998200, 4.000000000000001800, 500.0000000000000000 ) ) ;
#175 = DIRECTION ( 'NONE',  ( -2.168404344971008900E-016, 1.000000000000000000, -0.0000000000000000000 ) ) ;
#176 = LINE ( 'NONE', #177, #58 ) ;
#177 = CARTESIAN_POINT ( 'NONE',  ( -3.999999999999998200, -3.999999999999998200, 500.0000000000000000 ) ) ;
#178 = DIRECTION ( 'NONE',  ( -0.0000000000000000000, -0.0000000000000000000, -1.000000000000000000 ) ) ;
#179 = LINE ( 'NONE', #180, #64 ) ;
#180 = CARTESIAN_POINT ( 'NONE',  ( -4.000000000000000000, 4.000000000000001800, 500.0000000000000000 ) ) ;
#181 = DIRECTION ( 'NONE',  ( 2.168404344971008900E-016, -1.000000000000000000, 0.0000000000000000000 ) ) ;
#182 = CARTESIAN_POINT ( 'NONE',  ( 0.0000000000000000000, 0.0000000000000000000, -500.0000000000000000 ) ) ;
#183 = LINE ( 'NONE', #184, #54 ) ;
#184 = CARTESIAN_POINT ( 'NONE',  ( -3.999999999999998200, -3.999999999999998200, -500.0000000000000000 ) ) ;
#185 = DIRECTION ( 'NONE',  ( -0.0000000000000000000, 0.0000000000000000000, 1.000000000000000000 ) ) ;
#186 = DIRECTION ( 'NONE',  ( 1.000000000000000000, 0.0000000000000000000, 0.0000000000000000000 ) ) ;
#187 = CARTESIAN_POINT ( 'NONE',  ( -4.000000000000000000, 4.000000000000001800, -500.0000000000000000 ) ) ;
#188 = DIRECTION ( 'NONE',  ( -1.000000000000000000, -0.0000000000000000000, -0.0000000000000000000 ) ) ;
#189 = CARTESIAN_POINT ( 'NONE',  ( 0.0000000000000000000, 0.0000000000000000000, 0.0000000000000000000 ) ) ;
#190 = PERSON_AND_ORGANIZATION_ROLE ( 'classification_officer' ) ;
#191 = LINE ( 'NONE', #187, #86 ) ;
#192 = PLANE ( 'NONE',  #87 ) ;
#193 = DATE_AND_TIME ( #71, #14 ) ;
#194 = LINE ( 'NONE', #112, #52 ) ;
#195 = DIRECTION ( 'NONE',  ( -1.000000000000000000, -0.0000000000000000000, -0.0000000000000000000 ) ) ;
#196 = PERSON_AND_ORGANIZATION_ROLE ( 'design_supplier' ) ;
#197 = DATE_AND_TIME ( #83, #9 ) ;
#198 = DIRECTION ( 'NONE',  ( 1.000000000000000000, 0.0000000000000000000, 0.0000000000000000000 ) ) ;
#199 = LINE ( 'NONE', #200, #45 ) ;
#200 = CARTESIAN_POINT ( 'NONE',  ( -4.000000000000000000, 4.000000000000001800, 500.0000000000000000 ) ) ;
#201 = DATE_TIME_ROLE ( 'classification_date' ) ;
#202 = PERSON_AND_ORGANIZATION ( #39, #60 ) ;
#203 = DATE_AND_TIME ( #77, #6 ) ;
#204 = LINE ( 'NONE', #236, #70 ) ;
#205 = APPROVAL_DATE_TIME ( #221, #13 ) ;
#206 = APPROVAL_ROLE ( '' ) ;
#207 = PERSON_AND_ORGANIZATION_ROLE ( 'design_owner' ) ;
#208 = APPROVAL_ROLE ( '' ) ;
#209 = DATE_TIME_ROLE ( 'creation_date' ) ;
#210 = APPROVAL_DATE_TIME ( #215, #16 ) ;
#211 = APPLICATION_PROTOCOL_DEFINITION ( 'international standard', 'config_control_design', 1994, #90 ) ;
#212 = PERSON_AND_ORGANIZATION ( #39, #60 ) ;
#213 = APPROVAL_STATUS ( 'not_yet_approved' ) ;
#214 = PERSON_AND_ORGANIZATION ( #39, #60 ) ;
#215 = DATE_AND_TIME ( #74, #5 ) ;
#216 = APPROVAL_DATE_TIME ( #193, #12 ) ;
#217 = PERSON_AND_ORGANIZATION ( #39, #60 ) ;
#218 = PERSON_AND_ORGANIZATION ( #39, #60 ) ;
#219 = SHAPE_DEFINITION_REPRESENTATION ( #3, #41 ) ;
#220 = APPLICATION_PROTOCOL_DEFINITION ( 'international standard', 'config_control_design', 1994, #91 ) ;
#221 = DATE_AND_TIME ( #84, #33 ) ;
#222 = PERSON_AND_ORGANIZATION ( #39, #60 ) ;
#223 = PERSON_AND_ORGANIZATION_ROLE ( 'creator' ) ;
#224 = APPROVAL_STATUS ( 'not_yet_approved' ) ;
#225 = PERSON_AND_ORGANIZATION ( #39, #60 ) ;
#226 = SECURITY_CLASSIFICATION_LEVEL ( 'unclassified' ) ;
#227 = DIRECTION ( 'NONE',  ( 1.000000000000000000, 0.0000000000000000000, 0.0000000000000000000 ) ) ;
#228 = DIRECTION ( 'NONE',  ( 0.0000000000000000000, 0.0000000000000000000, 1.000000000000000000 ) ) ;
#229 =( NAMED_UNIT ( * ) PLANE_ANGLE_UNIT ( ) SI_UNIT ( $, .RADIAN. ) );
#230 = APPROVAL_STATUS ( 'not_yet_approved' ) ;
#231 = PERSON_AND_ORGANIZATION_ROLE ( 'creator' ) ;
#232 = MECHANICAL_CONTEXT ( 'NONE', #90, 'mechanical' ) ;
#233 = APPROVAL_ROLE ( '' ) ;
#234 = PERSON_AND_ORGANIZATION ( #39, #60 ) ;
#235 =( NAMED_UNIT ( * ) SI_UNIT ( $, .STERADIAN. ) SOLID_ANGLE_UNIT ( ) );
#236 = CARTESIAN_POINT ( 'NONE',  ( -4.000000000000000000, 4.000000000000001800, -500.0000000000000000 ) ) ;
#237 = DIRECTION ( 'NONE',  ( 2.168404344971008900E-016, -1.000000000000000000, 0.0000000000000000000 ) ) ;
ENDSEC;
END-ISO-10303-21;
