ISO-10303-21;
HEADER;
FILE_DESCRIPTION (( 'STEP AP203' ),
    '1' );
FILE_NAME ('sone3D.STEP',
    '2015-08-11T10:19:21',
    ( '' ),
    ( '' ),
    'SwSTEP 2.0',
    'SolidWorks 2012',
    '' );
FILE_SCHEMA (( 'CONFIG_CONTROL_DESIGN' ));
ENDSEC;

DATA;
#1 = ADVANCED_FACE ( 'NONE', ( #72 ), #189, .F. ) ;
#2 = ADVANCED_FACE ( 'NONE', ( #54 ), #193, .F. ) ;
#3 = EDGE_CURVE ( 'NONE', #171, #172, #197, .T. ) ;
#4 = CC_DESIGN_PERSON_AND_ORGANIZATION_ASSIGNMENT ( #103, #104, ( #61 ) ) ;
#5 = LOCAL_TIME ( 19, 19, 21.00000000000000000, #40 ) ;
#6 = PRODUCT_DEFINITION ( 'UNKNOWN', '', #61, #90 ) ;
#7 = EDGE_CURVE ( 'NONE', #170, #175, #201, .T. ) ;
#8 = EDGE_CURVE ( 'NONE', #170, #174, #204, .T. ) ;
#9 = CC_DESIGN_PERSON_AND_ORGANIZATION_ASSIGNMENT ( #110, #111, ( #6 ) ) ;
#10 = APPROVAL ( #97, 'UNSPECIFIED' ) ;
#11 = CC_DESIGN_DATE_AND_TIME_ASSIGNMENT ( #94, #95, ( #71 ) ) ;
#12 = LOCAL_TIME ( 19, 19, 21.00000000000000000, #70 ) ;
#13 = EDGE_CURVE ( 'NONE', #174, #177, #205, .T. ) ;
#14 = EDGE_CURVE ( 'NONE', #172, #175, #208, .T. ) ;
#15 = EDGE_CURVE ( 'NONE', #175, #177, #211, .T. ) ;
#16 = EDGE_CURVE ( 'NONE', #176, #173, #214, .T. ) ;
#17 = EDGE_CURVE ( 'NONE', #177, #173, #221, .T. ) ;
#18 = CC_DESIGN_PERSON_AND_ORGANIZATION_ASSIGNMENT ( #105, #98, ( #61 ) ) ;
#19 = ADVANCED_FACE ( 'NONE', ( #81 ), #200, .T. ) ;
#20 = ADVANCED_FACE ( 'NONE', ( #83 ), #218, .F. ) ;
#21 = APPROVAL ( #107, 'UNSPECIFIED' ) ;
#22 = LOCAL_TIME ( 19, 19, 21.00000000000000000, #80 ) ;
#23 = CC_DESIGN_PERSON_AND_ORGANIZATION_ASSIGNMENT ( #100, #101, ( #71 ) ) ;
#24 = ADVANCED_FACE ( 'NONE', ( #65 ), #230, .F. ) ;
#25 = LOCAL_TIME ( 19, 19, 21.00000000000000000, #69 ) ;
#26 = CC_DESIGN_PERSON_AND_ORGANIZATION_ASSIGNMENT ( #118, #119, ( #237 ) ) ;
#27 = EDGE_CURVE ( 'NONE', #171, #170, #226, .T. ) ;
#28 = APPROVAL ( #114, 'UNSPECIFIED' ) ;
#29 = PRODUCT_RELATED_PRODUCT_CATEGORY ( 'detail', '', ( #237 ) ) ;
#30 = EDGE_CURVE ( 'NONE', #176, #171, #151, .T. ) ;
#31 = EDGE_CURVE ( 'NONE', #174, #176, #148, .T. ) ;
#32 = ADVANCED_FACE ( 'NONE', ( #74 ), #152, .F. ) ;
#33 = CC_DESIGN_DATE_AND_TIME_ASSIGNMENT ( #112, #113, ( #6 ) ) ;
#34 = LOCAL_TIME ( 19, 19, 21.00000000000000000, #66 ) ;
#35 = EDGE_CURVE ( 'NONE', #173, #172, #138, .T. ) ;
#36 = PERSON ( 'UNSPECIFIED', 'UNSPECIFIED', 'UNSPECIFIED', ('UNSPECIFIED'), ('UNSPECIFIED'), ('UNSPECIFIED') ) ;
#37 = ADVANCED_BREP_SHAPE_REPRESENTATION ( 'sone3D', ( #89, #56 ), #39 ) ;
#38 = UNCERTAINTY_MEASURE_WITH_UNIT (LENGTH_MEASURE( 1.000000000000000100E-005 ), #129, 'distance_accuracy_value', 'NONE');
#39 =( GEOMETRIC_REPRESENTATION_CONTEXT ( 3 ) GLOBAL_UNCERTAINTY_ASSIGNED_CONTEXT ( ( #38 ) ) GLOBAL_UNIT_ASSIGNED_CONTEXT ( ( #129, #130, #128 ) ) REPRESENTATION_CONTEXT ( 'NONE', 'WORKASPACE' ) );
#40 = COORDINATED_UNIVERSAL_TIME_OFFSET ( 9, 0, .AHEAD. ) ;
#41 = APPROVAL_PERSON_ORGANIZATION ( #121, #28, #115 ) ;
#42 = CC_DESIGN_APPROVAL ( #10, ( #71 ) ) ;
#43 = VECTOR ( 'NONE', #234, 1000.000000000000000 ) ;
#44 = APPROVAL_PERSON_ORGANIZATION ( #106, #21, #108 ) ;
#45 = CC_DESIGN_SECURITY_CLASSIFICATION ( #71, ( #61 ) ) ;
#46 = ORGANIZATION ( 'UNSPECIFIED', 'UNSPECIFIED', '' ) ;
#47 = VECTOR ( 'NONE', #210, 1000.000000000000000 ) ;
#48 = VECTOR ( 'NONE', #207, 1000.000000000000000 ) ;
#49 = VECTOR ( 'NONE', #199, 1000.000000000000000 ) ;
#50 = CALENDAR_DATE ( 2015, 11, 8 ) ;
#51 = CC_DESIGN_APPROVAL ( #21, ( #61 ) ) ;
#52 = VECTOR ( 'NONE', #213, 1000.000000000000000 ) ;
#53 = CLOSED_SHELL ( 'NONE', ( #24, #2, #32, #1, #19, #20 ) ) ;
#54 = FACE_OUTER_BOUND ( 'NONE', #187, .T. ) ;
#55 = APPROVAL_PERSON_ORGANIZATION ( #96, #10, #91 ) ;
#56 = AXIS2_PLACEMENT_3D ( 'NONE', #123, #124, #125 ) ;
#57 = VECTOR ( 'NONE', #203, 1000.000000000000000 ) ;
#58 = CALENDAR_DATE ( 2015, 11, 8 ) ;
#59 = VECTOR ( 'NONE', #142, 1000.000000000000000 ) ;
#60 = VECTOR ( 'NONE', #150, 1000.000000000000000 ) ;
#61 = PRODUCT_DEFINITION_FORMATION_WITH_SPECIFIED_SOURCE ( 'ANY', '', #237, .NOT_KNOWN. ) ;
#62 = CC_DESIGN_APPROVAL ( #28, ( #6 ) ) ;
#63 = VECTOR ( 'NONE', #147, 1000.000000000000000 ) ;
#64 = AXIS2_PLACEMENT_3D ( 'NONE', #232, #225, #231 ) ;
#65 = FACE_OUTER_BOUND ( 'NONE', #185, .T. ) ;
#66 = COORDINATED_UNIVERSAL_TIME_OFFSET ( 9, 0, .AHEAD. ) ;
#67 = VECTOR ( 'NONE', #223, 1000.000000000000000 ) ;
#68 = AXIS2_PLACEMENT_3D ( 'NONE', #227, #224, #229 ) ;
#69 = COORDINATED_UNIVERSAL_TIME_OFFSET ( 9, 0, .AHEAD. ) ;
#70 = COORDINATED_UNIVERSAL_TIME_OFFSET ( 9, 0, .AHEAD. ) ;
#71 = SECURITY_CLASSIFICATION ( '', '', #99 ) ;
#72 = FACE_OUTER_BOUND ( 'NONE', #184, .T. ) ;
#73 = VECTOR ( 'NONE', #140, 1000.000000000000000 ) ;
#74 = FACE_OUTER_BOUND ( 'NONE', #188, .T. ) ;
#75 = AXIS2_PLACEMENT_3D ( 'NONE', #143, #144, #145 ) ;
#76 = AXIS2_PLACEMENT_3D ( 'NONE', #190, #191, #192 ) ;
#77 = VECTOR ( 'NONE', #216, 1000.000000000000000 ) ;
#78 = CALENDAR_DATE ( 2015, 11, 8 ) ;
#79 = AXIS2_PLACEMENT_3D ( 'NONE', #219, #220, #217 ) ;
#80 = COORDINATED_UNIVERSAL_TIME_OFFSET ( 9, 0, .AHEAD. ) ;
#81 = FACE_OUTER_BOUND ( 'NONE', #186, .T. ) ;
#82 = AXIS2_PLACEMENT_3D ( 'NONE', #194, #195, #196 ) ;
#83 = FACE_OUTER_BOUND ( 'NONE', #183, .T. ) ;
#84 = CALENDAR_DATE ( 2015, 11, 8 ) ;
#85 = CALENDAR_DATE ( 2015, 11, 8 ) ;
#86 = APPLICATION_CONTEXT ( 'configuration controlled 3d designs of mechanical parts and assemblies' ) ;
#87 = APPLICATION_CONTEXT ( 'configuration controlled 3d designs of mechanical parts and assemblies' ) ;
#88 = PRODUCT_DEFINITION_SHAPE ( 'NONE', 'NONE',  #6 ) ;
#89 = MANIFOLD_SOLID_BREP ( 'ÎÞ½ - µoµ1', #53 ) ;
#90 = DESIGN_CONTEXT ( 'detailed design', #87, 'design' ) ;
#91 = APPROVAL_ROLE ( '' ) ;
#92 = DATE_AND_TIME ( #58, #12 ) ;
#93 = APPROVAL_DATE_TIME ( #92, #10 ) ;
#94 = DATE_AND_TIME ( #84, #22 ) ;
#95 = DATE_TIME_ROLE ( 'classification_date' ) ;
#96 = PERSON_AND_ORGANIZATION ( #36, #46 ) ;
#97 = APPROVAL_STATUS ( 'not_yet_approved' ) ;
#98 = PERSON_AND_ORGANIZATION_ROLE ( 'design_supplier' ) ;
#99 = SECURITY_CLASSIFICATION_LEVEL ( 'unclassified' ) ;
#100 = PERSON_AND_ORGANIZATION ( #36, #46 ) ;
#101 = PERSON_AND_ORGANIZATION_ROLE ( 'classification_officer' ) ;
#102 = APPROVAL_DATE_TIME ( #109, #21 ) ;
#103 = PERSON_AND_ORGANIZATION ( #36, #46 ) ;
#104 = PERSON_AND_ORGANIZATION_ROLE ( 'creator' ) ;
#105 = PERSON_AND_ORGANIZATION ( #36, #46 ) ;
#106 = PERSON_AND_ORGANIZATION ( #36, #46 ) ;
#107 = APPROVAL_STATUS ( 'not_yet_approved' ) ;
#108 = APPROVAL_ROLE ( '' ) ;
#109 = DATE_AND_TIME ( #85, #25 ) ;
#110 = PERSON_AND_ORGANIZATION ( #36, #46 ) ;
#111 = PERSON_AND_ORGANIZATION_ROLE ( 'creator' ) ;
#112 = DATE_AND_TIME ( #78, #34 ) ;
#113 = DATE_TIME_ROLE ( 'creation_date' ) ;
#114 = APPROVAL_STATUS ( 'not_yet_approved' ) ;
#115 = APPROVAL_ROLE ( '' ) ;
#116 = DATE_AND_TIME ( #50, #5 ) ;
#117 = APPROVAL_DATE_TIME ( #116, #28 ) ;
#118 = PERSON_AND_ORGANIZATION ( #36, #46 ) ;
#119 = PERSON_AND_ORGANIZATION_ROLE ( 'design_owner' ) ;
#120 = APPLICATION_PROTOCOL_DEFINITION ( 'international standard', 'config_control_design', 1994, #87 ) ;
#121 = PERSON_AND_ORGANIZATION ( #36, #46 ) ;
#122 = MECHANICAL_CONTEXT ( 'NONE', #86, 'mechanical' ) ;
#123 = CARTESIAN_POINT ( 'NONE',  ( 0.0000000000000000000, 0.0000000000000000000, 0.0000000000000000000 ) ) ;
#124 = DIRECTION ( 'NONE',  ( 0.0000000000000000000, 0.0000000000000000000, 1.000000000000000000 ) ) ;
#125 = DIRECTION ( 'NONE',  ( 1.000000000000000000, 0.0000000000000000000, 0.0000000000000000000 ) ) ;
#126 = SHAPE_DEFINITION_REPRESENTATION ( #88, #37 ) ;
#127 = APPLICATION_PROTOCOL_DEFINITION ( 'international standard', 'config_control_design', 1994, #86 ) ;
#128 =( NAMED_UNIT ( * ) SI_UNIT ( $, .STERADIAN. ) SOLID_ANGLE_UNIT ( ) );
#129 =( LENGTH_UNIT ( ) NAMED_UNIT ( * ) SI_UNIT ( .MILLI., .METRE. ) );
#130 =( NAMED_UNIT ( * ) PLANE_ANGLE_UNIT ( ) SI_UNIT ( $, .RADIAN. ) );
#131 = CARTESIAN_POINT ( 'NONE',  ( 14.99999999999999800, 3.999999999999998200, 500.0000000000000000 ) ) ;
#132 = CARTESIAN_POINT ( 'NONE',  ( 14.99999999999999600, -4.000000000000001800, -500.0000000000000000 ) ) ;
#133 = CARTESIAN_POINT ( 'NONE',  ( -15.00000000000000000, 3.999999999999998200, 500.0000000000000000 ) ) ;
#134 = CARTESIAN_POINT ( 'NONE',  ( -15.00000000000000000, 3.999999999999998200, -500.0000000000000000 ) ) ;
#135 = CARTESIAN_POINT ( 'NONE',  ( 14.99999999999999800, 3.999999999999998200, -500.0000000000000000 ) ) ;
#136 = CARTESIAN_POINT ( 'NONE',  ( 14.99999999999999600, -4.000000000000001800, 500.0000000000000000 ) ) ;
#137 = CARTESIAN_POINT ( 'NONE',  ( -14.99999999999999600, -4.000000000000001800, -500.0000000000000000 ) ) ;
#138 = LINE ( 'NONE', #139, #73 ) ;
#139 = CARTESIAN_POINT ( 'NONE',  ( -15.00000000000000000, 3.999999999999998200, -500.0000000000000000 ) ) ;
#140 = DIRECTION ( 'NONE',  ( -1.000000000000000000, -0.0000000000000000000, -0.0000000000000000000 ) ) ;
#141 = CARTESIAN_POINT ( 'NONE',  ( -14.99999999999999600, -4.000000000000001800, 500.0000000000000000 ) ) ;
#142 = DIRECTION ( 'NONE',  ( 2.168404344971008900E-016, 1.000000000000000000, -0.0000000000000000000 ) ) ;
#143 = CARTESIAN_POINT ( 'NONE',  ( 14.99999999999999800, 3.999999999999998200, 500.0000000000000000 ) ) ;
#144 = DIRECTION ( 'NONE',  ( -1.000000000000000000, 2.168404344971008900E-016, 0.0000000000000000000 ) ) ;
#145 = DIRECTION ( 'NONE',  ( -2.168404344971008900E-016, -1.000000000000000000, 0.0000000000000000000 ) ) ;
#146 = CARTESIAN_POINT ( 'NONE',  ( -15.00000000000000000, 3.999999999999998200, 500.0000000000000000 ) ) ;
#147 = DIRECTION ( 'NONE',  ( -1.000000000000000000, -0.0000000000000000000, -0.0000000000000000000 ) ) ;
#148 = LINE ( 'NONE', #149, #59 ) ;
#149 = CARTESIAN_POINT ( 'NONE',  ( 14.99999999999999800, 3.999999999999998200, 500.0000000000000000 ) ) ;
#150 = DIRECTION ( 'NONE',  ( 4.336808689942017700E-016, -1.000000000000000000, 0.0000000000000000000 ) ) ;
#151 = LINE ( 'NONE', #146, #63 ) ;
#152 = PLANE ( 'NONE',  #75 ) ;
#153 = ORIENTED_EDGE ( 'NONE', *, *, #7, .F. ) ;
#154 = ORIENTED_EDGE ( 'NONE', *, *, #35, .F. ) ;
#155 = ORIENTED_EDGE ( 'NONE', *, *, #17, .F. ) ;
#156 = ORIENTED_EDGE ( 'NONE', *, *, #14, .T. ) ;
#157 = ORIENTED_EDGE ( 'NONE', *, *, #14, .F. ) ;
#158 = ORIENTED_EDGE ( 'NONE', *, *, #27, .T. ) ;
#159 = ORIENTED_EDGE ( 'NONE', *, *, #3, .F. ) ;
#160 = ORIENTED_EDGE ( 'NONE', *, *, #30, .T. ) ;
#161 = ORIENTED_EDGE ( 'NONE', *, *, #16, .T. ) ;
#162 = ORIENTED_EDGE ( 'NONE', *, *, #31, .T. ) ;
#163 = ORIENTED_EDGE ( 'NONE', *, *, #8, .T. ) ;
#164 = ORIENTED_EDGE ( 'NONE', *, *, #15, .F. ) ;
#165 = ORIENTED_EDGE ( 'NONE', *, *, #17, .T. ) ;
#166 = ORIENTED_EDGE ( 'NONE', *, *, #13, .F. ) ;
#167 = ORIENTED_EDGE ( 'NONE', *, *, #8, .F. ) ;
#168 = ORIENTED_EDGE ( 'NONE', *, *, #15, .T. ) ;
#169 = ORIENTED_EDGE ( 'NONE', *, *, #7, .T. ) ;
#170 = VERTEX_POINT ( 'NONE', #141 ) ;
#171 = VERTEX_POINT ( 'NONE', #133 ) ;
#172 = VERTEX_POINT ( 'NONE', #134 ) ;
#173 = VERTEX_POINT ( 'NONE', #135 ) ;
#174 = VERTEX_POINT ( 'NONE', #136 ) ;
#175 = VERTEX_POINT ( 'NONE', #137 ) ;
#176 = VERTEX_POINT ( 'NONE', #131 ) ;
#177 = VERTEX_POINT ( 'NONE', #132 ) ;
#178 = ORIENTED_EDGE ( 'NONE', *, *, #35, .T. ) ;
#179 = ORIENTED_EDGE ( 'NONE', *, *, #13, .T. ) ;
#180 = ORIENTED_EDGE ( 'NONE', *, *, #30, .F. ) ;
#181 = ORIENTED_EDGE ( 'NONE', *, *, #31, .F. ) ;
#182 = ORIENTED_EDGE ( 'NONE', *, *, #16, .F. ) ;
#183 = EDGE_LOOP ( 'NONE', ( #157, #154, #155, #164 ) ) ;
#184 = EDGE_LOOP ( 'NONE', ( #178, #159, #180, #161 ) ) ;
#185 = EDGE_LOOP ( 'NONE', ( #156, #153, #233, #228 ) ) ;
#186 = EDGE_LOOP ( 'NONE', ( #158, #163, #162, #160 ) ) ;
#187 = EDGE_LOOP ( 'NONE', ( #168, #166, #167, #169 ) ) ;
#188 = EDGE_LOOP ( 'NONE', ( #165, #182, #181, #179 ) ) ;
#189 = PLANE ( 'NONE',  #76 ) ;
#190 = CARTESIAN_POINT ( 'NONE',  ( -15.00000000000000000, 3.999999999999998200, 500.0000000000000000 ) ) ;
#191 = DIRECTION ( 'NONE',  ( 0.0000000000000000000, -1.000000000000000000, 0.0000000000000000000 ) ) ;
#192 = DIRECTION ( 'NONE',  ( 0.0000000000000000000, -0.0000000000000000000, -1.000000000000000000 ) ) ;
#193 = PLANE ( 'NONE',  #82 ) ;
#194 = CARTESIAN_POINT ( 'NONE',  ( -14.99999999999999600, -4.000000000000001800, 500.0000000000000000 ) ) ;
#195 = DIRECTION ( 'NONE',  ( 0.0000000000000000000, 1.000000000000000000, 0.0000000000000000000 ) ) ;
#196 = DIRECTION ( 'NONE',  ( 0.0000000000000000000, -0.0000000000000000000, 1.000000000000000000 ) ) ;
#197 = LINE ( 'NONE', #198, #49 ) ;
#198 = CARTESIAN_POINT ( 'NONE',  ( -15.00000000000000000, 3.999999999999998200, 500.0000000000000000 ) ) ;
#199 = DIRECTION ( 'NONE',  ( -0.0000000000000000000, -0.0000000000000000000, -1.000000000000000000 ) ) ;
#200 = PLANE ( 'NONE',  #79 ) ;
#201 = LINE ( 'NONE', #202, #57 ) ;
#202 = CARTESIAN_POINT ( 'NONE',  ( -14.99999999999999600, -4.000000000000001800, 500.0000000000000000 ) ) ;
#203 = DIRECTION ( 'NONE',  ( -0.0000000000000000000, -0.0000000000000000000, -1.000000000000000000 ) ) ;
#204 = LINE ( 'NONE', #235, #43 ) ;
#205 = LINE ( 'NONE', #206, #48 ) ;
#206 = CARTESIAN_POINT ( 'NONE',  ( 14.99999999999999600, -4.000000000000001800, 500.0000000000000000 ) ) ;
#207 = DIRECTION ( 'NONE',  ( -0.0000000000000000000, -0.0000000000000000000, -1.000000000000000000 ) ) ;
#208 = LINE ( 'NONE', #209, #47 ) ;
#209 = CARTESIAN_POINT ( 'NONE',  ( -15.00000000000000000, 3.999999999999998200, -500.0000000000000000 ) ) ;
#210 = DIRECTION ( 'NONE',  ( 4.336808689942017700E-016, -1.000000000000000000, 0.0000000000000000000 ) ) ;
#211 = LINE ( 'NONE', #212, #52 ) ;
#212 = CARTESIAN_POINT ( 'NONE',  ( -14.99999999999999600, -4.000000000000001800, -500.0000000000000000 ) ) ;
#213 = DIRECTION ( 'NONE',  ( 1.000000000000000000, 0.0000000000000000000, 0.0000000000000000000 ) ) ;
#214 = LINE ( 'NONE', #215, #67 ) ;
#215 = CARTESIAN_POINT ( 'NONE',  ( 14.99999999999999800, 3.999999999999998200, 500.0000000000000000 ) ) ;
#216 = DIRECTION ( 'NONE',  ( 2.168404344971008900E-016, 1.000000000000000000, -0.0000000000000000000 ) ) ;
#217 = DIRECTION ( 'NONE',  ( 1.000000000000000000, 0.0000000000000000000, 0.0000000000000000000 ) ) ;
#218 = PLANE ( 'NONE',  #68 ) ;
#219 = CARTESIAN_POINT ( 'NONE',  ( 0.0000000000000000000, 0.0000000000000000000, 500.0000000000000000 ) ) ;
#220 = DIRECTION ( 'NONE',  ( -0.0000000000000000000, 0.0000000000000000000, 1.000000000000000000 ) ) ;
#221 = LINE ( 'NONE', #222, #77 ) ;
#222 = CARTESIAN_POINT ( 'NONE',  ( 14.99999999999999800, 3.999999999999998200, -500.0000000000000000 ) ) ;
#223 = DIRECTION ( 'NONE',  ( -0.0000000000000000000, -0.0000000000000000000, -1.000000000000000000 ) ) ;
#224 = DIRECTION ( 'NONE',  ( -0.0000000000000000000, 0.0000000000000000000, 1.000000000000000000 ) ) ;
#225 = DIRECTION ( 'NONE',  ( 1.000000000000000000, 4.336808689942017700E-016, -0.0000000000000000000 ) ) ;
#226 = LINE ( 'NONE', #236, #60 ) ;
#227 = CARTESIAN_POINT ( 'NONE',  ( 0.0000000000000000000, 0.0000000000000000000, -500.0000000000000000 ) ) ;
#228 = ORIENTED_EDGE ( 'NONE', *, *, #3, .T. ) ;
#229 = DIRECTION ( 'NONE',  ( 1.000000000000000000, 0.0000000000000000000, 0.0000000000000000000 ) ) ;
#230 = PLANE ( 'NONE',  #64 ) ;
#231 = DIRECTION ( 'NONE',  ( -4.336808689942017700E-016, 1.000000000000000000, 0.0000000000000000000 ) ) ;
#232 = CARTESIAN_POINT ( 'NONE',  ( -15.00000000000000000, 3.999999999999998200, 500.0000000000000000 ) ) ;
#233 = ORIENTED_EDGE ( 'NONE', *, *, #27, .F. ) ;
#234 = DIRECTION ( 'NONE',  ( 1.000000000000000000, 0.0000000000000000000, 0.0000000000000000000 ) ) ;
#235 = CARTESIAN_POINT ( 'NONE',  ( -14.99999999999999600, -4.000000000000001800, 500.0000000000000000 ) ) ;
#236 = CARTESIAN_POINT ( 'NONE',  ( -15.00000000000000000, 3.999999999999998200, 500.0000000000000000 ) ) ;
#237 = PRODUCT ( 'sone3D', 'sone3D', '', ( #122 ) ) ;
ENDSEC;
END-ISO-10303-21;
