ISO-10303-21;
HEADER;
FILE_DESCRIPTION (( 'STEP AP203' ),
    '1' );
FILE_NAME ('sone3D.STEP',
    '2015-08-11T10:18:46',
    ( '' ),
    ( '' ),
    'SwSTEP 2.0',
    'SolidWorks 2012',
    '' );
FILE_SCHEMA (( 'CONFIG_CONTROL_DESIGN' ));
ENDSEC;

DATA;
#1 = DESIGN_CONTEXT ( 'detailed design', #89, 'design' ) ;
#2 = MANIFOLD_SOLID_BREP ( 'ÎÞ½ - µoµ1', #48 ) ;
#3 = PRODUCT_DEFINITION_SHAPE ( 'NONE', 'NONE',  #12 ) ;
#4 = EDGE_CURVE ( 'NONE', #121, #122, #133, .T. ) ;
#5 = APPROVAL ( #225, 'UNSPECIFIED' ) ;
#6 = ADVANCED_FACE ( 'NONE', ( #82 ), #136, .F. ) ;
#7 = EDGE_CURVE ( 'NONE', #122, #120, #140, .T. ) ;
#8 = EDGE_CURVE ( 'NONE', #109, #110, #146, .T. ) ;
#9 = EDGE_CURVE ( 'NONE', #110, #124, #150, .T. ) ;
#10 = ADVANCED_FACE ( 'NONE', ( #49 ), #144, .F. ) ;
#11 = EDGE_CURVE ( 'NONE', #122, #123, #156, .T. ) ;
#12 = PRODUCT_DEFINITION ( 'UNKNOWN', '', #47, #1 ) ;
#13 = CC_DESIGN_PERSON_AND_ORGANIZATION_ASSIGNMENT ( #223, #199, ( #47 ) ) ;
#14 = LOCAL_TIME ( 19, 18, 46.00000000000000000, #74 ) ;
#15 = LOCAL_TIME ( 19, 18, 46.00000000000000000, #83 ) ;
#16 = LOCAL_TIME ( 19, 18, 46.00000000000000000, #46 ) ;
#17 = CC_DESIGN_DATE_AND_TIME_ASSIGNMENT ( #188, #189, ( #12 ) ) ;
#18 = CC_DESIGN_PERSON_AND_ORGANIZATION_ASSIGNMENT ( #210, #196, ( #47 ) ) ;
#19 = APPROVAL ( #200, 'UNSPECIFIED' ) ;
#20 = LOCAL_TIME ( 19, 18, 46.00000000000000000, #76 ) ;
#21 = APPROVAL ( #192, 'UNSPECIFIED' ) ;
#22 = EDGE_CURVE ( 'NONE', #120, #108, #160, .T. ) ;
#23 = EDGE_CURVE ( 'NONE', #109, #121, #163, .T. ) ;
#24 = EDGE_CURVE ( 'NONE', #123, #109, #176, .T. ) ;
#25 = CC_DESIGN_DATE_AND_TIME_ASSIGNMENT ( #187, #227, ( #68 ) ) ;
#26 = EDGE_CURVE ( 'NONE', #123, #108, #168, .T. ) ;
#27 = ADVANCED_FACE ( 'NONE', ( #53 ), #159, .F. ) ;
#28 = CC_DESIGN_PERSON_AND_ORGANIZATION_ASSIGNMENT ( #198, #236, ( #42 ) ) ;
#29 = EDGE_CURVE ( 'NONE', #108, #110, #177, .T. ) ;
#30 = LOCAL_TIME ( 19, 18, 46.00000000000000000, #59 ) ;
#31 = ADVANCED_FACE ( 'NONE', ( #86 ), #179, .F. ) ;
#32 = PRODUCT_RELATED_PRODUCT_CATEGORY ( 'detail', '', ( #42 ) ) ;
#33 = CC_DESIGN_PERSON_AND_ORGANIZATION_ASSIGNMENT ( #211, #235, ( #68 ) ) ;
#34 = ADVANCED_FACE ( 'NONE', ( #73 ), #185, .F. ) ;
#35 = EDGE_CURVE ( 'NONE', #124, #120, #195, .T. ) ;
#36 = CC_DESIGN_PERSON_AND_ORGANIZATION_ASSIGNMENT ( #224, #208, ( #12 ) ) ;
#37 = EDGE_CURVE ( 'NONE', #121, #124, #217, .T. ) ;
#38 = ADVANCED_FACE ( 'NONE', ( #52 ), #216, .T. ) ;
#39 = PERSON ( 'UNSPECIFIED', 'UNSPECIFIED', 'UNSPECIFIED', ('UNSPECIFIED'), ('UNSPECIFIED'), ('UNSPECIFIED') ) ;
#40 = ADVANCED_BREP_SHAPE_REPRESENTATION ( 'sone3D', ( #2, #62 ), #91 ) ;
#41 = UNCERTAINTY_MEASURE_WITH_UNIT (LENGTH_MEASURE( 1.000000000000000100E-005 ), #145, 'distance_accuracy_value', 'NONE');
#42 = PRODUCT ( 'sone3D', 'sone3D', '', ( #186 ) ) ;
#43 = APPROVAL_PERSON_ORGANIZATION ( #237, #19, #230 ) ;
#44 = VECTOR ( 'NONE', #152, 1000.000000000000000 ) ;
#45 = CALENDAR_DATE ( 2015, 11, 8 ) ;
#46 = COORDINATED_UNIVERSAL_TIME_OFFSET ( 9, 0, .AHEAD. ) ;
#47 = PRODUCT_DEFINITION_FORMATION_WITH_SPECIFIED_SOURCE ( 'ANY', '', #42, .NOT_KNOWN. ) ;
#48 = CLOSED_SHELL ( 'NONE', ( #31, #6, #27, #34, #38, #10 ) ) ;
#49 = FACE_OUTER_BOUND ( 'NONE', #132, .T. ) ;
#50 = CC_DESIGN_SECURITY_CLASSIFICATION ( #68, ( #47 ) ) ;
#51 = VECTOR ( 'NONE', #165, 1000.000000000000000 ) ;
#52 = FACE_OUTER_BOUND ( 'NONE', #128, .T. ) ;
#53 = FACE_OUTER_BOUND ( 'NONE', #130, .T. ) ;
#54 = CC_DESIGN_APPROVAL ( #5, ( #68 ) ) ;
#55 = VECTOR ( 'NONE', #158, 1000.000000000000000 ) ;
#56 = APPROVAL_PERSON_ORGANIZATION ( #233, #21, #218 ) ;
#57 = CC_DESIGN_APPROVAL ( #19, ( #47 ) ) ;
#58 = CALENDAR_DATE ( 2015, 11, 8 ) ;
#59 = COORDINATED_UNIVERSAL_TIME_OFFSET ( 9, 0, .AHEAD. ) ;
#60 = ORGANIZATION ( 'UNSPECIFIED', 'UNSPECIFIED', '' ) ;
#61 = AXIS2_PLACEMENT_3D ( 'NONE', #178, #221, #181 ) ;
#62 = AXIS2_PLACEMENT_3D ( 'NONE', #166, #94, #102 ) ;
#63 = VECTOR ( 'NONE', #143, 1000.000000000000000 ) ;
#64 = AXIS2_PLACEMENT_3D ( 'NONE', #209, #220, #202 ) ;
#65 = VECTOR ( 'NONE', #197, 1000.000000000000000 ) ;
#66 = VECTOR ( 'NONE', #149, 1000.000000000000000 ) ;
#67 = AXIS2_PLACEMENT_3D ( 'NONE', #153, #154, #155 ) ;
#68 = SECURITY_CLASSIFICATION ( '', '', #231 ) ;
#69 = VECTOR ( 'NONE', #135, 1000.000000000000000 ) ;
#70 = CALENDAR_DATE ( 2015, 11, 8 ) ;
#71 = AXIS2_PLACEMENT_3D ( 'NONE', #169, #170, #182 ) ;
#72 = CALENDAR_DATE ( 2015, 11, 8 ) ;
#73 = FACE_OUTER_BOUND ( 'NONE', #127, .T. ) ;
#74 = COORDINATED_UNIVERSAL_TIME_OFFSET ( 9, 0, .AHEAD. ) ;
#75 = VECTOR ( 'NONE', #172, 1000.000000000000000 ) ;
#76 = COORDINATED_UNIVERSAL_TIME_OFFSET ( 9, 0, .AHEAD. ) ;
#77 = CC_DESIGN_APPROVAL ( #21, ( #12 ) ) ;
#78 = AXIS2_PLACEMENT_3D ( 'NONE', #193, #201, #191 ) ;
#79 = VECTOR ( 'NONE', #162, 1000.000000000000000 ) ;
#80 = VECTOR ( 'NONE', #184, 1000.000000000000000 ) ;
#81 = APPROVAL_PERSON_ORGANIZATION ( #229, #5, #222 ) ;
#82 = FACE_OUTER_BOUND ( 'NONE', #131, .T. ) ;
#83 = COORDINATED_UNIVERSAL_TIME_OFFSET ( 9, 0, .AHEAD. ) ;
#84 = VECTOR ( 'NONE', #174, 1000.000000000000000 ) ;
#85 = VECTOR ( 'NONE', #190, 1000.000000000000000 ) ;
#86 = FACE_OUTER_BOUND ( 'NONE', #129, .T. ) ;
#87 = AXIS2_PLACEMENT_3D ( 'NONE', #137, #138, #139 ) ;
#88 = CALENDAR_DATE ( 2015, 11, 8 ) ;
#89 = APPLICATION_CONTEXT ( 'configuration controlled 3d designs of mechanical parts and assemblies' ) ;
#90 = APPLICATION_CONTEXT ( 'configuration controlled 3d designs of mechanical parts and assemblies' ) ;
#91 =( GEOMETRIC_REPRESENTATION_CONTEXT ( 3 ) GLOBAL_UNCERTAINTY_ASSIGNED_CONTEXT ( ( #41 ) ) GLOBAL_UNIT_ASSIGNED_CONTEXT ( ( #145, #93, #180 ) ) REPRESENTATION_CONTEXT ( 'NONE', 'WORKASPACE' ) );
#92 = ORIENTED_EDGE ( 'NONE', *, *, #9, .T. ) ;
#93 =( NAMED_UNIT ( * ) PLANE_ANGLE_UNIT ( ) SI_UNIT ( $, .RADIAN. ) );
#94 = DIRECTION ( 'NONE',  ( 0.0000000000000000000, 0.0000000000000000000, 1.000000000000000000 ) ) ;
#95 = ORIENTED_EDGE ( 'NONE', *, *, #24, .F. ) ;
#96 = ORIENTED_EDGE ( 'NONE', *, *, #26, .T. ) ;
#97 = ORIENTED_EDGE ( 'NONE', *, *, #8, .F. ) ;
#98 = ORIENTED_EDGE ( 'NONE', *, *, #29, .T. ) ;
#99 = ORIENTED_EDGE ( 'NONE', *, *, #23, .T. ) ;
#100 = ORIENTED_EDGE ( 'NONE', *, *, #24, .T. ) ;
#101 = ORIENTED_EDGE ( 'NONE', *, *, #4, .T. ) ;
#102 = DIRECTION ( 'NONE',  ( 1.000000000000000000, 0.0000000000000000000, 0.0000000000000000000 ) ) ;
#103 = ORIENTED_EDGE ( 'NONE', *, *, #29, .F. ) ;
#104 = ORIENTED_EDGE ( 'NONE', *, *, #26, .F. ) ;
#105 = ORIENTED_EDGE ( 'NONE', *, *, #9, .F. ) ;
#106 = ORIENTED_EDGE ( 'NONE', *, *, #7, .T. ) ;
#107 = ORIENTED_EDGE ( 'NONE', *, *, #11, .T. ) ;
#108 = VERTEX_POINT ( 'NONE', #203 ) ;
#109 = VERTEX_POINT ( 'NONE', #214 ) ;
#110 = VERTEX_POINT ( 'NONE', #175 ) ;
#111 = ORIENTED_EDGE ( 'NONE', *, *, #37, .F. ) ;
#112 = ORIENTED_EDGE ( 'NONE', *, *, #8, .T. ) ;
#113 = ORIENTED_EDGE ( 'NONE', *, *, #35, .T. ) ;
#114 = ORIENTED_EDGE ( 'NONE', *, *, #4, .F. ) ;
#115 = ORIENTED_EDGE ( 'NONE', *, *, #37, .T. ) ;
#116 = ORIENTED_EDGE ( 'NONE', *, *, #22, .T. ) ;
#117 = ORIENTED_EDGE ( 'NONE', *, *, #11, .F. ) ;
#118 = ORIENTED_EDGE ( 'NONE', *, *, #7, .F. ) ;
#119 = ORIENTED_EDGE ( 'NONE', *, *, #23, .F. ) ;
#120 = VERTEX_POINT ( 'NONE', #212 ) ;
#121 = VERTEX_POINT ( 'NONE', #204 ) ;
#122 = VERTEX_POINT ( 'NONE', #206 ) ;
#123 = VERTEX_POINT ( 'NONE', #207 ) ;
#124 = VERTEX_POINT ( 'NONE', #215 ) ;
#125 = ORIENTED_EDGE ( 'NONE', *, *, #22, .F. ) ;
#126 = ORIENTED_EDGE ( 'NONE', *, *, #35, .F. ) ;
#127 = EDGE_LOOP ( 'NONE', ( #116, #104, #117, #106 ) ) ;
#128 = EDGE_LOOP ( 'NONE', ( #100, #99, #101, #107 ) ) ;
#129 = EDGE_LOOP ( 'NONE', ( #98, #97, #95, #96 ) ) ;
#130 = EDGE_LOOP ( 'NONE', ( #113, #118, #114, #115 ) ) ;
#131 = EDGE_LOOP ( 'NONE', ( #92, #111, #119, #112 ) ) ;
#132 = EDGE_LOOP ( 'NONE', ( #103, #125, #126, #105 ) ) ;
#133 = LINE ( 'NONE', #134, #69 ) ;
#134 = CARTESIAN_POINT ( 'NONE',  ( 12.49999999999999800, 3.999999999999999100, 500.0000000000000000 ) ) ;
#135 = DIRECTION ( 'NONE',  ( 2.168404344971008900E-016, 1.000000000000000000, -0.0000000000000000000 ) ) ;
#136 = PLANE ( 'NONE',  #87 ) ;
#137 = CARTESIAN_POINT ( 'NONE',  ( -12.50000000000000000, -4.000000000000000900, 500.0000000000000000 ) ) ;
#138 = DIRECTION ( 'NONE',  ( 0.0000000000000000000, 1.000000000000000000, 0.0000000000000000000 ) ) ;
#139 = DIRECTION ( 'NONE',  ( 0.0000000000000000000, -0.0000000000000000000, 1.000000000000000000 ) ) ;
#140 = LINE ( 'NONE', #141, #63 ) ;
#141 = CARTESIAN_POINT ( 'NONE',  ( 12.49999999999999800, 3.999999999999999100, 500.0000000000000000 ) ) ;
#142 = SHAPE_DEFINITION_REPRESENTATION ( #3, #40 ) ;
#143 = DIRECTION ( 'NONE',  ( -0.0000000000000000000, -0.0000000000000000000, -1.000000000000000000 ) ) ;
#144 = PLANE ( 'NONE',  #67 ) ;
#145 =( LENGTH_UNIT ( ) NAMED_UNIT ( * ) SI_UNIT ( .MILLI., .METRE. ) );
#146 = LINE ( 'NONE', #148, #66 ) ;
#147 = APPLICATION_PROTOCOL_DEFINITION ( 'international standard', 'config_control_design', 1994, #90 ) ;
#148 = CARTESIAN_POINT ( 'NONE',  ( -12.50000000000000000, -4.000000000000000900, 500.0000000000000000 ) ) ;
#149 = DIRECTION ( 'NONE',  ( -0.0000000000000000000, -0.0000000000000000000, -1.000000000000000000 ) ) ;
#150 = LINE ( 'NONE', #151, #44 ) ;
#151 = CARTESIAN_POINT ( 'NONE',  ( -12.50000000000000000, -4.000000000000000900, -500.0000000000000000 ) ) ;
#152 = DIRECTION ( 'NONE',  ( 1.000000000000000000, 0.0000000000000000000, 0.0000000000000000000 ) ) ;
#153 = CARTESIAN_POINT ( 'NONE',  ( 0.0000000000000000000, 0.0000000000000000000, -500.0000000000000000 ) ) ;
#154 = DIRECTION ( 'NONE',  ( -0.0000000000000000000, 0.0000000000000000000, 1.000000000000000000 ) ) ;
#155 = DIRECTION ( 'NONE',  ( 1.000000000000000000, 0.0000000000000000000, 0.0000000000000000000 ) ) ;
#156 = LINE ( 'NONE', #157, #55 ) ;
#157 = CARTESIAN_POINT ( 'NONE',  ( -12.50000000000000200, 3.999999999999999100, 500.0000000000000000 ) ) ;
#158 = DIRECTION ( 'NONE',  ( -1.000000000000000000, -0.0000000000000000000, -0.0000000000000000000 ) ) ;
#159 = PLANE ( 'NONE',  #71 ) ;
#160 = LINE ( 'NONE', #161, #79 ) ;
#161 = CARTESIAN_POINT ( 'NONE',  ( -12.50000000000000200, 3.999999999999999100, -500.0000000000000000 ) ) ;
#162 = DIRECTION ( 'NONE',  ( -1.000000000000000000, -0.0000000000000000000, -0.0000000000000000000 ) ) ;
#163 = LINE ( 'NONE', #164, #51 ) ;
#164 = CARTESIAN_POINT ( 'NONE',  ( -12.50000000000000000, -4.000000000000000900, 500.0000000000000000 ) ) ;
#165 = DIRECTION ( 'NONE',  ( 1.000000000000000000, 0.0000000000000000000, 0.0000000000000000000 ) ) ;
#166 = CARTESIAN_POINT ( 'NONE',  ( 0.0000000000000000000, 0.0000000000000000000, 0.0000000000000000000 ) ) ;
#167 = DATE_AND_TIME ( #58, #16 ) ;
#168 = LINE ( 'NONE', #171, #75 ) ;
#169 = CARTESIAN_POINT ( 'NONE',  ( 12.49999999999999800, 3.999999999999999100, 500.0000000000000000 ) ) ;
#170 = DIRECTION ( 'NONE',  ( -1.000000000000000000, 2.168404344971008900E-016, 0.0000000000000000000 ) ) ;
#171 = CARTESIAN_POINT ( 'NONE',  ( -12.50000000000000200, 3.999999999999999100, 500.0000000000000000 ) ) ;
#172 = DIRECTION ( 'NONE',  ( -0.0000000000000000000, -0.0000000000000000000, -1.000000000000000000 ) ) ;
#173 = CARTESIAN_POINT ( 'NONE',  ( -12.50000000000000200, 3.999999999999999100, 500.0000000000000000 ) ) ;
#174 = DIRECTION ( 'NONE',  ( 2.168404344971008900E-016, -1.000000000000000000, 0.0000000000000000000 ) ) ;
#175 = CARTESIAN_POINT ( 'NONE',  ( -12.50000000000000000, -4.000000000000000900, -500.0000000000000000 ) ) ;
#176 = LINE ( 'NONE', #173, #84 ) ;
#177 = LINE ( 'NONE', #183, #80 ) ;
#178 = CARTESIAN_POINT ( 'NONE',  ( -12.50000000000000200, 3.999999999999999100, 500.0000000000000000 ) ) ;
#179 = PLANE ( 'NONE',  #61 ) ;
#180 =( NAMED_UNIT ( * ) SI_UNIT ( $, .STERADIAN. ) SOLID_ANGLE_UNIT ( ) );
#181 = DIRECTION ( 'NONE',  ( -2.168404344971008900E-016, 1.000000000000000000, 0.0000000000000000000 ) ) ;
#182 = DIRECTION ( 'NONE',  ( -2.168404344971008900E-016, -1.000000000000000000, 0.0000000000000000000 ) ) ;
#183 = CARTESIAN_POINT ( 'NONE',  ( -12.50000000000000200, 3.999999999999999100, -500.0000000000000000 ) ) ;
#184 = DIRECTION ( 'NONE',  ( 2.168404344971008900E-016, -1.000000000000000000, 0.0000000000000000000 ) ) ;
#185 = PLANE ( 'NONE',  #78 ) ;
#186 = MECHANICAL_CONTEXT ( 'NONE', #90, 'mechanical' ) ;
#187 = DATE_AND_TIME ( #72, #30 ) ;
#188 = DATE_AND_TIME ( #88, #15 ) ;
#189 = DATE_TIME_ROLE ( 'creation_date' ) ;
#190 = DIRECTION ( 'NONE',  ( 2.168404344971008900E-016, 1.000000000000000000, -0.0000000000000000000 ) ) ;
#191 = DIRECTION ( 'NONE',  ( 0.0000000000000000000, -0.0000000000000000000, -1.000000000000000000 ) ) ;
#192 = APPROVAL_STATUS ( 'not_yet_approved' ) ;
#193 = CARTESIAN_POINT ( 'NONE',  ( -12.50000000000000200, 3.999999999999999100, 500.0000000000000000 ) ) ;
#194 = CARTESIAN_POINT ( 'NONE',  ( 12.49999999999999600, -4.000000000000000900, 500.0000000000000000 ) ) ;
#195 = LINE ( 'NONE', #219, #85 ) ;
#196 = PERSON_AND_ORGANIZATION_ROLE ( 'creator' ) ;
#197 = DIRECTION ( 'NONE',  ( -0.0000000000000000000, -0.0000000000000000000, -1.000000000000000000 ) ) ;
#198 = PERSON_AND_ORGANIZATION ( #39, #60 ) ;
#199 = PERSON_AND_ORGANIZATION_ROLE ( 'design_supplier' ) ;
#200 = APPROVAL_STATUS ( 'not_yet_approved' ) ;
#201 = DIRECTION ( 'NONE',  ( 0.0000000000000000000, -1.000000000000000000, 0.0000000000000000000 ) ) ;
#202 = DIRECTION ( 'NONE',  ( 1.000000000000000000, 0.0000000000000000000, 0.0000000000000000000 ) ) ;
#203 = CARTESIAN_POINT ( 'NONE',  ( -12.50000000000000200, 3.999999999999999100, -500.0000000000000000 ) ) ;
#204 = CARTESIAN_POINT ( 'NONE',  ( 12.49999999999999600, -4.000000000000000900, 500.0000000000000000 ) ) ;
#205 = APPROVAL_DATE_TIME ( #213, #21 ) ;
#206 = CARTESIAN_POINT ( 'NONE',  ( 12.49999999999999800, 3.999999999999999100, 500.0000000000000000 ) ) ;
#207 = CARTESIAN_POINT ( 'NONE',  ( -12.50000000000000200, 3.999999999999999100, 500.0000000000000000 ) ) ;
#208 = PERSON_AND_ORGANIZATION_ROLE ( 'creator' ) ;
#209 = CARTESIAN_POINT ( 'NONE',  ( 0.0000000000000000000, 0.0000000000000000000, 500.0000000000000000 ) ) ;
#210 = PERSON_AND_ORGANIZATION ( #39, #60 ) ;
#211 = PERSON_AND_ORGANIZATION ( #39, #60 ) ;
#212 = CARTESIAN_POINT ( 'NONE',  ( 12.49999999999999800, 3.999999999999999100, -500.0000000000000000 ) ) ;
#213 = DATE_AND_TIME ( #45, #20 ) ;
#214 = CARTESIAN_POINT ( 'NONE',  ( -12.50000000000000000, -4.000000000000000900, 500.0000000000000000 ) ) ;
#215 = CARTESIAN_POINT ( 'NONE',  ( 12.49999999999999600, -4.000000000000000900, -500.0000000000000000 ) ) ;
#216 = PLANE ( 'NONE',  #64 ) ;
#217 = LINE ( 'NONE', #194, #65 ) ;
#218 = APPROVAL_ROLE ( '' ) ;
#219 = CARTESIAN_POINT ( 'NONE',  ( 12.49999999999999800, 3.999999999999999100, -500.0000000000000000 ) ) ;
#220 = DIRECTION ( 'NONE',  ( -0.0000000000000000000, 0.0000000000000000000, 1.000000000000000000 ) ) ;
#221 = DIRECTION ( 'NONE',  ( 1.000000000000000000, 2.168404344971008900E-016, -0.0000000000000000000 ) ) ;
#222 = APPROVAL_ROLE ( '' ) ;
#223 = PERSON_AND_ORGANIZATION ( #39, #60 ) ;
#224 = PERSON_AND_ORGANIZATION ( #39, #60 ) ;
#225 = APPROVAL_STATUS ( 'not_yet_approved' ) ;
#226 = APPROVAL_DATE_TIME ( #167, #19 ) ;
#227 = DATE_TIME_ROLE ( 'classification_date' ) ;
#228 = DATE_AND_TIME ( #70, #14 ) ;
#229 = PERSON_AND_ORGANIZATION ( #39, #60 ) ;
#230 = APPROVAL_ROLE ( '' ) ;
#231 = SECURITY_CLASSIFICATION_LEVEL ( 'unclassified' ) ;
#232 = APPROVAL_DATE_TIME ( #228, #5 ) ;
#233 = PERSON_AND_ORGANIZATION ( #39, #60 ) ;
#234 = APPLICATION_PROTOCOL_DEFINITION ( 'international standard', 'config_control_design', 1994, #89 ) ;
#235 = PERSON_AND_ORGANIZATION_ROLE ( 'classification_officer' ) ;
#236 = PERSON_AND_ORGANIZATION_ROLE ( 'design_owner' ) ;
#237 = PERSON_AND_ORGANIZATION ( #39, #60 ) ;
ENDSEC;
END-ISO-10303-21;
