ISO-10303-21;
HEADER;
FILE_DESCRIPTION (( 'STEP AP203' ),
    '1' );
FILE_NAME ('sone3D.STEP',
    '2015-08-11T10:18:28',
    ( '' ),
    ( '' ),
    'SwSTEP 2.0',
    'SolidWorks 2012',
    '' );
FILE_SCHEMA (( 'CONFIG_CONTROL_DESIGN' ));
ENDSEC;

DATA;
#1 = LOCAL_TIME ( 19, 18, 28.00000000000000000, #88 ) ;
#2 = CC_DESIGN_DATE_AND_TIME_ASSIGNMENT ( #224, #227, ( #5 ) ) ;
#3 = CC_DESIGN_PERSON_AND_ORGANIZATION_ASSIGNMENT ( #235, #233, ( #75 ) ) ;
#4 = LOCAL_TIME ( 19, 18, 28.00000000000000000, #65 ) ;
#5 = PRODUCT_DEFINITION ( 'UNKNOWN', '', #58, #42 ) ;
#6 = LOCAL_TIME ( 19, 18, 28.00000000000000000, #48 ) ;
#7 = CC_DESIGN_PERSON_AND_ORGANIZATION_ASSIGNMENT ( #229, #228, ( #58 ) ) ;
#8 = CC_DESIGN_PERSON_AND_ORGANIZATION_ASSIGNMENT ( #194, #223, ( #5 ) ) ;
#9 = LOCAL_TIME ( 19, 18, 28.00000000000000000, #71 ) ;
#10 = CC_DESIGN_PERSON_AND_ORGANIZATION_ASSIGNMENT ( #230, #192, ( #58 ) ) ;
#11 = CC_DESIGN_PERSON_AND_ORGANIZATION_ASSIGNMENT ( #202, #183, ( #27 ) ) ;
#12 = APPROVAL ( #212, 'UNSPECIFIED' ) ;
#13 = EDGE_CURVE ( 'NONE', #110, #109, #130, .T. ) ;
#14 = LOCAL_TIME ( 19, 18, 28.00000000000000000, #80 ) ;
#15 = PRODUCT_RELATED_PRODUCT_CATEGORY ( 'detail', '', ( #27 ) ) ;
#16 = APPROVAL ( #232, 'UNSPECIFIED' ) ;
#17 = EDGE_CURVE ( 'NONE', #105, #109, #135, .T. ) ;
#18 = EDGE_CURVE ( 'NONE', #109, #107, #138, .T. ) ;
#19 = EDGE_CURVE ( 'NONE', #111, #112, #141, .T. ) ;
#20 = EDGE_CURVE ( 'NONE', #108, #110, #144, .T. ) ;
#21 = APPROVAL ( #200, 'UNSPECIFIED' ) ;
#22 = EDGE_CURVE ( 'NONE', #111, #108, #148, .T. ) ;
#23 = CC_DESIGN_DATE_AND_TIME_ASSIGNMENT ( #196, #195, ( #75 ) ) ;
#24 = UNCERTAINTY_MEASURE_WITH_UNIT (LENGTH_MEASURE( 1.000000000000000100E-005 ), #199, 'distance_accuracy_value', 'NONE');
#25 = ADVANCED_BREP_SHAPE_REPRESENTATION ( 'sone3D', ( #40, #77 ), #45 ) ;
#26 = PERSON ( 'UNSPECIFIED', 'UNSPECIFIED', 'UNSPECIFIED', ('UNSPECIFIED'), ('UNSPECIFIED'), ('UNSPECIFIED') ) ;
#27 = PRODUCT ( 'sone3D', 'sone3D', '', ( #193 ) ) ;
#28 = ADVANCED_FACE ( 'NONE', ( #62 ), #134, .F. ) ;
#29 = ADVANCED_FACE ( 'NONE', ( #63 ), #155, .F. ) ;
#30 = ADVANCED_FACE ( 'NONE', ( #91 ), #159, .T. ) ;
#31 = EDGE_CURVE ( 'NONE', #112, #105, #169, .T. ) ;
#32 = ADVANCED_FACE ( 'NONE', ( #73 ), #163, .F. ) ;
#33 = EDGE_CURVE ( 'NONE', #106, #111, #165, .T. ) ;
#34 = EDGE_CURVE ( 'NONE', #106, #107, #175, .T. ) ;
#35 = EDGE_CURVE ( 'NONE', #108, #105, #205, .T. ) ;
#36 = ADVANCED_FACE ( 'NONE', ( #69 ), #174, .F. ) ;
#37 = EDGE_CURVE ( 'NONE', #107, #112, #214, .T. ) ;
#38 = ADVANCED_FACE ( 'NONE', ( #53 ), #216, .F. ) ;
#39 = EDGE_CURVE ( 'NONE', #110, #106, #177, .T. ) ;
#40 = MANIFOLD_SOLID_BREP ( 'ÎÞ½ - µoµ1', #60 ) ;
#41 = PRODUCT_DEFINITION_SHAPE ( 'NONE', 'NONE',  #5 ) ;
#42 = DESIGN_CONTEXT ( 'detailed design', #43, 'design' ) ;
#43 = APPLICATION_CONTEXT ( 'configuration controlled 3d designs of mechanical parts and assemblies' ) ;
#44 = APPLICATION_CONTEXT ( 'configuration controlled 3d designs of mechanical parts and assemblies' ) ;
#45 =( GEOMETRIC_REPRESENTATION_CONTEXT ( 3 ) GLOBAL_UNCERTAINTY_ASSIGNED_CONTEXT ( ( #24 ) ) GLOBAL_UNIT_ASSIGNED_CONTEXT ( ( #199, #198, #182 ) ) REPRESENTATION_CONTEXT ( 'NONE', 'WORKASPACE' ) );
#46 = AXIS2_PLACEMENT_3D ( 'NONE', #206, #150, #185 ) ;
#47 = CC_DESIGN_SECURITY_CLASSIFICATION ( #75, ( #58 ) ) ;
#48 = COORDINATED_UNIVERSAL_TIME_OFFSET ( 9, 0, .AHEAD. ) ;
#49 = CALENDAR_DATE ( 2015, 11, 8 ) ;
#50 = APPROVAL_PERSON_ORGANIZATION ( #213, #12, #191 ) ;
#51 = CALENDAR_DATE ( 2015, 11, 8 ) ;
#52 = VECTOR ( 'NONE', #140, 1000.000000000000000 ) ;
#53 = FACE_OUTER_BOUND ( 'NONE', #178, .T. ) ;
#54 = CC_DESIGN_APPROVAL ( #16, ( #58 ) ) ;
#55 = VECTOR ( 'NONE', #176, 1000.000000000000000 ) ;
#56 = CC_DESIGN_APPROVAL ( #12, ( #5 ) ) ;
#57 = AXIS2_PLACEMENT_3D ( 'NONE', #156, #157, #158 ) ;
#58 = PRODUCT_DEFINITION_FORMATION_WITH_SPECIFIED_SOURCE ( 'ANY', '', #27, .NOT_KNOWN. ) ;
#59 = CC_DESIGN_APPROVAL ( #21, ( #75 ) ) ;
#60 = CLOSED_SHELL ( 'NONE', ( #32, #29, #36, #28, #30, #38 ) ) ;
#61 = AXIS2_PLACEMENT_3D ( 'NONE', #221, #209, #211 ) ;
#62 = FACE_OUTER_BOUND ( 'NONE', #127, .T. ) ;
#63 = FACE_OUTER_BOUND ( 'NONE', #126, .T. ) ;
#64 = CALENDAR_DATE ( 2015, 11, 8 ) ;
#65 = COORDINATED_UNIVERSAL_TIME_OFFSET ( 9, 0, .AHEAD. ) ;
#66 = AXIS2_PLACEMENT_3D ( 'NONE', #146, #166, #164 ) ;
#67 = VECTOR ( 'NONE', #170, 1000.000000000000000 ) ;
#68 = CALENDAR_DATE ( 2015, 11, 8 ) ;
#69 = FACE_OUTER_BOUND ( 'NONE', #128, .T. ) ;
#70 = ORGANIZATION ( 'UNSPECIFIED', 'UNSPECIFIED', '' ) ;
#71 = COORDINATED_UNIVERSAL_TIME_OFFSET ( 9, 0, .AHEAD. ) ;
#72 = VECTOR ( 'NONE', #133, 1000.000000000000000 ) ;
#73 = FACE_OUTER_BOUND ( 'NONE', #125, .T. ) ;
#74 = VECTOR ( 'NONE', #137, 1000.000000000000000 ) ;
#75 = SECURITY_CLASSIFICATION ( '', '', #237 ) ;
#76 = APPROVAL_PERSON_ORGANIZATION ( #180, #21, #201 ) ;
#77 = AXIS2_PLACEMENT_3D ( 'NONE', #222, #210, #187 ) ;
#78 = VECTOR ( 'NONE', #197, 1000.000000000000000 ) ;
#79 = AXIS2_PLACEMENT_3D ( 'NONE', #160, #161, #162 ) ;
#80 = COORDINATED_UNIVERSAL_TIME_OFFSET ( 9, 0, .AHEAD. ) ;
#81 = VECTOR ( 'NONE', #179, 1000.000000000000000 ) ;
#82 = AXIS2_PLACEMENT_3D ( 'NONE', #152, #153, #154 ) ;
#83 = CALENDAR_DATE ( 2015, 11, 8 ) ;
#84 = VECTOR ( 'NONE', #151, 1000.000000000000000 ) ;
#85 = APPROVAL_PERSON_ORGANIZATION ( #236, #16, #234 ) ;
#86 = VECTOR ( 'NONE', #143, 1000.000000000000000 ) ;
#87 = VECTOR ( 'NONE', #168, 1000.000000000000000 ) ;
#88 = COORDINATED_UNIVERSAL_TIME_OFFSET ( 9, 0, .AHEAD. ) ;
#89 = VECTOR ( 'NONE', #184, 1000.000000000000000 ) ;
#90 = VECTOR ( 'NONE', #147, 1000.000000000000000 ) ;
#91 = FACE_OUTER_BOUND ( 'NONE', #129, .T. ) ;
#92 = ORIENTED_EDGE ( 'NONE', *, *, #34, .T. ) ;
#93 = ORIENTED_EDGE ( 'NONE', *, *, #22, .T. ) ;
#94 = ORIENTED_EDGE ( 'NONE', *, *, #20, .T. ) ;
#95 = ORIENTED_EDGE ( 'NONE', *, *, #39, .T. ) ;
#96 = ORIENTED_EDGE ( 'NONE', *, *, #37, .F. ) ;
#97 = ORIENTED_EDGE ( 'NONE', *, *, #33, .T. ) ;
#98 = ORIENTED_EDGE ( 'NONE', *, *, #19, .F. ) ;
#99 = ORIENTED_EDGE ( 'NONE', *, *, #31, .F. ) ;
#100 = ORIENTED_EDGE ( 'NONE', *, *, #17, .F. ) ;
#101 = ORIENTED_EDGE ( 'NONE', *, *, #13, .T. ) ;
#102 = ORIENTED_EDGE ( 'NONE', *, *, #37, .T. ) ;
#103 = ORIENTED_EDGE ( 'NONE', *, *, #33, .F. ) ;
#104 = ORIENTED_EDGE ( 'NONE', *, *, #31, .T. ) ;
#105 = VERTEX_POINT ( 'NONE', #186 ) ;
#106 = VERTEX_POINT ( 'NONE', #190 ) ;
#107 = VERTEX_POINT ( 'NONE', #217 ) ;
#108 = VERTEX_POINT ( 'NONE', #218 ) ;
#109 = VERTEX_POINT ( 'NONE', #189 ) ;
#110 = VERTEX_POINT ( 'NONE', #119 ) ;
#111 = VERTEX_POINT ( 'NONE', #220 ) ;
#112 = VERTEX_POINT ( 'NONE', #219 ) ;
#113 = ORIENTED_EDGE ( 'NONE', *, *, #34, .F. ) ;
#114 = ORIENTED_EDGE ( 'NONE', *, *, #39, .F. ) ;
#115 = ORIENTED_EDGE ( 'NONE', *, *, #19, .T. ) ;
#116 = ORIENTED_EDGE ( 'NONE', *, *, #18, .T. ) ;
#117 = ORIENTED_EDGE ( 'NONE', *, *, #22, .F. ) ;
#118 = ORIENTED_EDGE ( 'NONE', *, *, #35, .F. ) ;
#119 = CARTESIAN_POINT ( 'NONE',  ( 10.00000000000000000, -4.000000000000000900, 500.0000000000000000 ) ) ;
#120 = ORIENTED_EDGE ( 'NONE', *, *, #17, .T. ) ;
#121 = ORIENTED_EDGE ( 'NONE', *, *, #20, .F. ) ;
#122 = ORIENTED_EDGE ( 'NONE', *, *, #13, .F. ) ;
#123 = ORIENTED_EDGE ( 'NONE', *, *, #35, .T. ) ;
#124 = ORIENTED_EDGE ( 'NONE', *, *, #18, .F. ) ;
#125 = EDGE_LOOP ( 'NONE', ( #104, #118, #117, #115 ) ) ;
#126 = EDGE_LOOP ( 'NONE', ( #120, #122, #121, #123 ) ) ;
#127 = EDGE_LOOP ( 'NONE', ( #102, #98, #103, #92 ) ) ;
#128 = EDGE_LOOP ( 'NONE', ( #116, #113, #114, #101 ) ) ;
#129 = EDGE_LOOP ( 'NONE', ( #93, #94, #95, #97 ) ) ;
#130 = LINE ( 'NONE', #131, #72 ) ;
#131 = CARTESIAN_POINT ( 'NONE',  ( 10.00000000000000000, -4.000000000000000900, 500.0000000000000000 ) ) ;
#132 = CARTESIAN_POINT ( 'NONE',  ( 9.999999999999998200, 3.999999999999999100, 500.0000000000000000 ) ) ;
#133 = DIRECTION ( 'NONE',  ( -0.0000000000000000000, -0.0000000000000000000, -1.000000000000000000 ) ) ;
#134 = PLANE ( 'NONE',  #82 ) ;
#135 = LINE ( 'NONE', #136, #74 ) ;
#136 = CARTESIAN_POINT ( 'NONE',  ( -10.00000000000000200, -4.000000000000000900, -500.0000000000000000 ) ) ;
#137 = DIRECTION ( 'NONE',  ( 1.000000000000000000, 0.0000000000000000000, 0.0000000000000000000 ) ) ;
#138 = LINE ( 'NONE', #139, #52 ) ;
#139 = CARTESIAN_POINT ( 'NONE',  ( 9.999999999999998200, 3.999999999999999100, -500.0000000000000000 ) ) ;
#140 = DIRECTION ( 'NONE',  ( -2.168404344971008900E-016, 1.000000000000000000, -0.0000000000000000000 ) ) ;
#141 = LINE ( 'NONE', #142, #86 ) ;
#142 = CARTESIAN_POINT ( 'NONE',  ( -10.00000000000000200, 3.999999999999999100, 500.0000000000000000 ) ) ;
#143 = DIRECTION ( 'NONE',  ( -0.0000000000000000000, -0.0000000000000000000, -1.000000000000000000 ) ) ;
#144 = LINE ( 'NONE', #145, #90 ) ;
#145 = CARTESIAN_POINT ( 'NONE',  ( -10.00000000000000200, -4.000000000000000900, 500.0000000000000000 ) ) ;
#146 = CARTESIAN_POINT ( 'NONE',  ( -10.00000000000000200, 3.999999999999999100, 500.0000000000000000 ) ) ;
#147 = DIRECTION ( 'NONE',  ( 1.000000000000000000, 0.0000000000000000000, 0.0000000000000000000 ) ) ;
#148 = LINE ( 'NONE', #149, #84 ) ;
#149 = CARTESIAN_POINT ( 'NONE',  ( -10.00000000000000200, 3.999999999999999100, 500.0000000000000000 ) ) ;
#150 = DIRECTION ( 'NONE',  ( -0.0000000000000000000, 0.0000000000000000000, 1.000000000000000000 ) ) ;
#151 = DIRECTION ( 'NONE',  ( 0.0000000000000000000, -1.000000000000000000, 0.0000000000000000000 ) ) ;
#152 = CARTESIAN_POINT ( 'NONE',  ( -10.00000000000000200, 3.999999999999999100, 500.0000000000000000 ) ) ;
#153 = DIRECTION ( 'NONE',  ( 0.0000000000000000000, -1.000000000000000000, 0.0000000000000000000 ) ) ;
#154 = DIRECTION ( 'NONE',  ( 0.0000000000000000000, -0.0000000000000000000, -1.000000000000000000 ) ) ;
#155 = PLANE ( 'NONE',  #57 ) ;
#156 = CARTESIAN_POINT ( 'NONE',  ( -10.00000000000000200, -4.000000000000000900, 500.0000000000000000 ) ) ;
#157 = DIRECTION ( 'NONE',  ( 0.0000000000000000000, 1.000000000000000000, 0.0000000000000000000 ) ) ;
#158 = DIRECTION ( 'NONE',  ( 0.0000000000000000000, -0.0000000000000000000, 1.000000000000000000 ) ) ;
#159 = PLANE ( 'NONE',  #79 ) ;
#160 = CARTESIAN_POINT ( 'NONE',  ( 0.0000000000000000000, 0.0000000000000000000, 500.0000000000000000 ) ) ;
#161 = DIRECTION ( 'NONE',  ( -0.0000000000000000000, 0.0000000000000000000, 1.000000000000000000 ) ) ;
#162 = DIRECTION ( 'NONE',  ( 1.000000000000000000, 0.0000000000000000000, 0.0000000000000000000 ) ) ;
#163 = PLANE ( 'NONE',  #66 ) ;
#164 = DIRECTION ( 'NONE',  ( -0.0000000000000000000, 0.0000000000000000000, -1.000000000000000000 ) ) ;
#165 = LINE ( 'NONE', #172, #67 ) ;
#166 = DIRECTION ( 'NONE',  ( 1.000000000000000000, 0.0000000000000000000, -0.0000000000000000000 ) ) ;
#167 = CARTESIAN_POINT ( 'NONE',  ( -10.00000000000000200, 3.999999999999999100, -500.0000000000000000 ) ) ;
#168 = DIRECTION ( 'NONE',  ( 0.0000000000000000000, -1.000000000000000000, 0.0000000000000000000 ) ) ;
#169 = LINE ( 'NONE', #167, #87 ) ;
#170 = DIRECTION ( 'NONE',  ( -1.000000000000000000, -0.0000000000000000000, -0.0000000000000000000 ) ) ;
#171 = CARTESIAN_POINT ( 'NONE',  ( -10.00000000000000200, -4.000000000000000900, 500.0000000000000000 ) ) ;
#172 = CARTESIAN_POINT ( 'NONE',  ( -10.00000000000000200, 3.999999999999999100, 500.0000000000000000 ) ) ;
#173 = CARTESIAN_POINT ( 'NONE',  ( 9.999999999999998200, 3.999999999999999100, 500.0000000000000000 ) ) ;
#174 = PLANE ( 'NONE',  #61 ) ;
#175 = LINE ( 'NONE', #173, #89 ) ;
#176 = DIRECTION ( 'NONE',  ( -0.0000000000000000000, -0.0000000000000000000, -1.000000000000000000 ) ) ;
#177 = LINE ( 'NONE', #132, #81 ) ;
#178 = EDGE_LOOP ( 'NONE', ( #99, #96, #124, #100 ) ) ;
#179 = DIRECTION ( 'NONE',  ( -2.168404344971008900E-016, 1.000000000000000000, -0.0000000000000000000 ) ) ;
#180 = PERSON_AND_ORGANIZATION ( #26, #70 ) ;
#181 = APPLICATION_PROTOCOL_DEFINITION ( 'international standard', 'config_control_design', 1994, #44 ) ;
#182 =( NAMED_UNIT ( * ) SI_UNIT ( $, .STERADIAN. ) SOLID_ANGLE_UNIT ( ) );
#183 = PERSON_AND_ORGANIZATION_ROLE ( 'design_owner' ) ;
#184 = DIRECTION ( 'NONE',  ( -0.0000000000000000000, -0.0000000000000000000, -1.000000000000000000 ) ) ;
#185 = DIRECTION ( 'NONE',  ( 1.000000000000000000, 0.0000000000000000000, 0.0000000000000000000 ) ) ;
#186 = CARTESIAN_POINT ( 'NONE',  ( -10.00000000000000200, -4.000000000000000900, -500.0000000000000000 ) ) ;
#187 = DIRECTION ( 'NONE',  ( 1.000000000000000000, 0.0000000000000000000, 0.0000000000000000000 ) ) ;
#188 = APPROVAL_DATE_TIME ( #226, #16 ) ;
#189 = CARTESIAN_POINT ( 'NONE',  ( 10.00000000000000000, -4.000000000000000900, -500.0000000000000000 ) ) ;
#190 = CARTESIAN_POINT ( 'NONE',  ( 9.999999999999998200, 3.999999999999999100, 500.0000000000000000 ) ) ;
#191 = APPROVAL_ROLE ( '' ) ;
#192 = PERSON_AND_ORGANIZATION_ROLE ( 'design_supplier' ) ;
#193 = MECHANICAL_CONTEXT ( 'NONE', #44, 'mechanical' ) ;
#194 = PERSON_AND_ORGANIZATION ( #26, #70 ) ;
#195 = DATE_TIME_ROLE ( 'classification_date' ) ;
#196 = DATE_AND_TIME ( #83, #9 ) ;
#197 = DIRECTION ( 'NONE',  ( -1.000000000000000000, -0.0000000000000000000, -0.0000000000000000000 ) ) ;
#198 =( NAMED_UNIT ( * ) PLANE_ANGLE_UNIT ( ) SI_UNIT ( $, .RADIAN. ) );
#199 =( LENGTH_UNIT ( ) NAMED_UNIT ( * ) SI_UNIT ( .MILLI., .METRE. ) );
#200 = APPROVAL_STATUS ( 'not_yet_approved' ) ;
#201 = APPROVAL_ROLE ( '' ) ;
#202 = PERSON_AND_ORGANIZATION ( #26, #70 ) ;
#203 = DATE_AND_TIME ( #51, #14 ) ;
#204 = APPROVAL_DATE_TIME ( #203, #21 ) ;
#205 = LINE ( 'NONE', #171, #55 ) ;
#206 = CARTESIAN_POINT ( 'NONE',  ( 0.0000000000000000000, 0.0000000000000000000, -500.0000000000000000 ) ) ;
#207 = APPLICATION_PROTOCOL_DEFINITION ( 'international standard', 'config_control_design', 1994, #43 ) ;
#208 = DATE_AND_TIME ( #68, #1 ) ;
#209 = DIRECTION ( 'NONE',  ( -1.000000000000000000, -2.168404344971008900E-016, 0.0000000000000000000 ) ) ;
#210 = DIRECTION ( 'NONE',  ( 0.0000000000000000000, 0.0000000000000000000, 1.000000000000000000 ) ) ;
#211 = DIRECTION ( 'NONE',  ( 2.168404344971008900E-016, -1.000000000000000000, 0.0000000000000000000 ) ) ;
#212 = APPROVAL_STATUS ( 'not_yet_approved' ) ;
#213 = PERSON_AND_ORGANIZATION ( #26, #70 ) ;
#214 = LINE ( 'NONE', #215, #78 ) ;
#215 = CARTESIAN_POINT ( 'NONE',  ( -10.00000000000000200, 3.999999999999999100, -500.0000000000000000 ) ) ;
#216 = PLANE ( 'NONE',  #46 ) ;
#217 = CARTESIAN_POINT ( 'NONE',  ( 9.999999999999998200, 3.999999999999999100, -500.0000000000000000 ) ) ;
#218 = CARTESIAN_POINT ( 'NONE',  ( -10.00000000000000200, -4.000000000000000900, 500.0000000000000000 ) ) ;
#219 = CARTESIAN_POINT ( 'NONE',  ( -10.00000000000000200, 3.999999999999999100, -500.0000000000000000 ) ) ;
#220 = CARTESIAN_POINT ( 'NONE',  ( -10.00000000000000200, 3.999999999999999100, 500.0000000000000000 ) ) ;
#221 = CARTESIAN_POINT ( 'NONE',  ( 9.999999999999998200, 3.999999999999999100, 500.0000000000000000 ) ) ;
#222 = CARTESIAN_POINT ( 'NONE',  ( 0.0000000000000000000, 0.0000000000000000000, 0.0000000000000000000 ) ) ;
#223 = PERSON_AND_ORGANIZATION_ROLE ( 'creator' ) ;
#224 = DATE_AND_TIME ( #49, #4 ) ;
#225 = APPROVAL_DATE_TIME ( #208, #12 ) ;
#226 = DATE_AND_TIME ( #64, #6 ) ;
#227 = DATE_TIME_ROLE ( 'creation_date' ) ;
#228 = PERSON_AND_ORGANIZATION_ROLE ( 'creator' ) ;
#229 = PERSON_AND_ORGANIZATION ( #26, #70 ) ;
#230 = PERSON_AND_ORGANIZATION ( #26, #70 ) ;
#231 = SHAPE_DEFINITION_REPRESENTATION ( #41, #25 ) ;
#232 = APPROVAL_STATUS ( 'not_yet_approved' ) ;
#233 = PERSON_AND_ORGANIZATION_ROLE ( 'classification_officer' ) ;
#234 = APPROVAL_ROLE ( '' ) ;
#235 = PERSON_AND_ORGANIZATION ( #26, #70 ) ;
#236 = PERSON_AND_ORGANIZATION ( #26, #70 ) ;
#237 = SECURITY_CLASSIFICATION_LEVEL ( 'unclassified' ) ;
ENDSEC;
END-ISO-10303-21;
