ISO-10303-21;
HEADER;
FILE_DESCRIPTION (( 'STEP AP203' ),
    '1' );
FILE_NAME ('sone3D.STEP',
    '2015-08-11T10:18:06',
    ( '' ),
    ( '' ),
    'SwSTEP 2.0',
    'SolidWorks 2012',
    '' );
FILE_SCHEMA (( 'CONFIG_CONTROL_DESIGN' ));
ENDSEC;

DATA;
#1 = PRODUCT ( 'sone3D', 'sone3D', '', ( #123 ) ) ;
#2 = APPROVAL ( #202, 'UNSPECIFIED' ) ;
#3 = CC_DESIGN_PERSON_AND_ORGANIZATION_ASSIGNMENT ( #180, #151, ( #66 ) ) ;
#4 = LOCAL_TIME ( 19, 18, 6.000000000000000000, #73 ) ;
#5 = LOCAL_TIME ( 19, 18, 6.000000000000000000, #52 ) ;
#6 = PRODUCT_RELATED_PRODUCT_CATEGORY ( 'detail', '', ( #1 ) ) ;
#7 = LOCAL_TIME ( 19, 18, 6.000000000000000000, #87 ) ;
#8 = CC_DESIGN_DATE_AND_TIME_ASSIGNMENT ( #188, #132, ( #66 ) ) ;
#9 = APPROVAL ( #191, 'UNSPECIFIED' ) ;
#10 = CC_DESIGN_DATE_AND_TIME_ASSIGNMENT ( #201, #200, ( #14 ) ) ;
#11 = CC_DESIGN_PERSON_AND_ORGANIZATION_ASSIGNMENT ( #102, #162, ( #60 ) ) ;
#12 = CC_DESIGN_PERSON_AND_ORGANIZATION_ASSIGNMENT ( #104, #141, ( #60 ) ) ;
#13 = EDGE_CURVE ( 'NONE', #231, #127, #117, .T. ) ;
#14 = PRODUCT_DEFINITION ( 'UNKNOWN', '', #60, #39 ) ;
#15 = EDGE_CURVE ( 'NONE', #182, #230, #122, .T. ) ;
#16 = EDGE_CURVE ( 'NONE', #230, #231, #128, .T. ) ;
#17 = ADVANCED_FACE ( 'NONE', ( #81 ), #121, .F. ) ;
#18 = EDGE_CURVE ( 'NONE', #127, #174, #138, .T. ) ;
#19 = ADVANCED_FACE ( 'NONE', ( #48 ), #143, .T. ) ;
#20 = EDGE_CURVE ( 'NONE', #174, #236, #148, .T. ) ;
#21 = ADVANCED_FACE ( 'NONE', ( #90 ), #153, .F. ) ;
#22 = EDGE_CURVE ( 'NONE', #213, #182, #158, .T. ) ;
#23 = CC_DESIGN_PERSON_AND_ORGANIZATION_ASSIGNMENT ( #118, #129, ( #1 ) ) ;
#24 = LOCAL_TIME ( 19, 18, 6.000000000000000000, #70 ) ;
#25 = CC_DESIGN_PERSON_AND_ORGANIZATION_ASSIGNMENT ( #199, #197, ( #14 ) ) ;
#26 = ADVANCED_FACE ( 'NONE', ( #47 ), #170, .F. ) ;
#27 = EDGE_CURVE ( 'NONE', #237, #213, #166, .T. ) ;
#28 = ADVANCED_FACE ( 'NONE', ( #61 ), #165, .F. ) ;
#29 = EDGE_CURVE ( 'NONE', #237, #127, #176, .T. ) ;
#30 = APPROVAL ( #194, 'UNSPECIFIED' ) ;
#31 = EDGE_CURVE ( 'NONE', #182, #236, #175, .T. ) ;
#32 = ADVANCED_FACE ( 'NONE', ( #71 ), #179, .F. ) ;
#33 = EDGE_CURVE ( 'NONE', #230, #237, #229, .T. ) ;
#34 = EDGE_CURVE ( 'NONE', #213, #174, #131, .T. ) ;
#35 = EDGE_CURVE ( 'NONE', #236, #231, #226, .T. ) ;
#36 = LOCAL_TIME ( 19, 18, 6.000000000000000000, #83 ) ;
#37 = PRODUCT_DEFINITION_SHAPE ( 'NONE', 'NONE',  #14 ) ;
#38 = MANIFOLD_SOLID_BREP ( 'ÎÞ½ - µoµ1', #91 ) ;
#39 = DESIGN_CONTEXT ( 'detailed design', #41, 'design' ) ;
#40 = APPLICATION_CONTEXT ( 'configuration controlled 3d designs of mechanical parts and assemblies' ) ;
#41 = APPLICATION_CONTEXT ( 'configuration controlled 3d designs of mechanical parts and assemblies' ) ;
#42 =( GEOMETRIC_REPRESENTATION_CONTEXT ( 3 ) GLOBAL_UNCERTAINTY_ASSIGNED_CONTEXT ( ( #43 ) ) GLOBAL_UNIT_ASSIGNED_CONTEXT ( ( #209, #208, #207 ) ) REPRESENTATION_CONTEXT ( 'NONE', 'WORKASPACE' ) );
#43 = UNCERTAINTY_MEASURE_WITH_UNIT (LENGTH_MEASURE( 1.000000000000000100E-005 ), #209, 'distance_accuracy_value', 'NONE');
#44 = ADVANCED_BREP_SHAPE_REPRESENTATION ( 'sone3D', ( #38, #68 ), #42 ) ;
#45 = PERSON ( 'UNSPECIFIED', 'UNSPECIFIED', 'UNSPECIFIED', ('UNSPECIFIED'), ('UNSPECIFIED'), ('UNSPECIFIED') ) ;
#46 = APPROVAL_PERSON_ORGANIZATION ( #192, #30, #193 ) ;
#47 = FACE_OUTER_BOUND ( 'NONE', #115, .T. ) ;
#48 = FACE_OUTER_BOUND ( 'NONE', #110, .T. ) ;
#49 = APPROVAL_PERSON_ORGANIZATION ( #144, #9, #150 ) ;
#50 = VECTOR ( 'NONE', #142, 1000.000000000000000 ) ;
#51 = VECTOR ( 'NONE', #160, 1000.000000000000000 ) ;
#52 = COORDINATED_UNIVERSAL_TIME_OFFSET ( 9, 0, .AHEAD. ) ;
#53 = VECTOR ( 'NONE', #152, 1000.000000000000000 ) ;
#54 = VECTOR ( 'NONE', #133, 1000.000000000000000 ) ;
#55 = AXIS2_PLACEMENT_3D ( 'NONE', #154, #156, #157 ) ;
#56 = VECTOR ( 'NONE', #178, 1000.000000000000000 ) ;
#57 = AXIS2_PLACEMENT_3D ( 'NONE', #124, #116, #224 ) ;
#58 = VECTOR ( 'NONE', #120, 1000.000000000000000 ) ;
#59 = AXIS2_PLACEMENT_3D ( 'NONE', #145, #146, #147 ) ;
#60 = PRODUCT_DEFINITION_FORMATION_WITH_SPECIFIED_SOURCE ( 'ANY', '', #1, .NOT_KNOWN. ) ;
#61 = FACE_OUTER_BOUND ( 'NONE', #111, .T. ) ;
#62 = VECTOR ( 'NONE', #163, 1000.000000000000000 ) ;
#63 = APPROVAL_PERSON_ORGANIZATION ( #203, #2, #205 ) ;
#64 = VECTOR ( 'NONE', #212, 1000.000000000000000 ) ;
#65 = CC_DESIGN_APPROVAL ( #30, ( #14 ) ) ;
#66 = SECURITY_CLASSIFICATION ( '', '', #186 ) ;
#67 = VECTOR ( 'NONE', #222, 1000.000000000000000 ) ;
#68 = AXIS2_PLACEMENT_3D ( 'NONE', #189, #184, #139 ) ;
#69 = CALENDAR_DATE ( 2015, 11, 8 ) ;
#70 = COORDINATED_UNIVERSAL_TIME_OFFSET ( 9, 0, .AHEAD. ) ;
#71 = FACE_OUTER_BOUND ( 'NONE', #113, .T. ) ;
#72 = AXIS2_PLACEMENT_3D ( 'NONE', #185, #172, #100 ) ;
#73 = COORDINATED_UNIVERSAL_TIME_OFFSET ( 9, 0, .AHEAD. ) ;
#74 = VECTOR ( 'NONE', #227, 1000.000000000000000 ) ;
#75 = AXIS2_PLACEMENT_3D ( 'NONE', #168, #169, #161 ) ;
#76 = AXIS2_PLACEMENT_3D ( 'NONE', #135, #136, #137 ) ;
#77 = ORGANIZATION ( 'UNSPECIFIED', 'UNSPECIFIED', '' ) ;
#78 = VECTOR ( 'NONE', #101, 1000.000000000000000 ) ;
#79 = CALENDAR_DATE ( 2015, 11, 8 ) ;
#80 = CALENDAR_DATE ( 2015, 11, 8 ) ;
#81 = FACE_OUTER_BOUND ( 'NONE', #112, .T. ) ;
#82 = CC_DESIGN_APPROVAL ( #2, ( #60 ) ) ;
#83 = COORDINATED_UNIVERSAL_TIME_OFFSET ( 9, 0, .AHEAD. ) ;
#84 = CALENDAR_DATE ( 2015, 11, 8 ) ;
#85 = CALENDAR_DATE ( 2015, 11, 8 ) ;
#86 = CC_DESIGN_SECURITY_CLASSIFICATION ( #66, ( #60 ) ) ;
#87 = COORDINATED_UNIVERSAL_TIME_OFFSET ( 9, 0, .AHEAD. ) ;
#88 = CC_DESIGN_APPROVAL ( #9, ( #66 ) ) ;
#89 = VECTOR ( 'NONE', #126, 1000.000000000000000 ) ;
#90 = FACE_OUTER_BOUND ( 'NONE', #114, .T. ) ;
#91 = CLOSED_SHELL ( 'NONE', ( #28, #21, #26, #17, #19, #32 ) ) ;
#92 = ORIENTED_EDGE ( 'NONE', *, *, #18, .F. ) ;
#93 = ORIENTED_EDGE ( 'NONE', *, *, #34, .T. ) ;
#94 = ORIENTED_EDGE ( 'NONE', *, *, #33, .T. ) ;
#95 = ORIENTED_EDGE ( 'NONE', *, *, #31, .T. ) ;
#96 = ORIENTED_EDGE ( 'NONE', *, *, #20, .F. ) ;
#97 = ORIENTED_EDGE ( 'NONE', *, *, #15, .T. ) ;
#98 = ORIENTED_EDGE ( 'NONE', *, *, #35, .F. ) ;
#99 = ORIENTED_EDGE ( 'NONE', *, *, #13, .F. ) ;
#100 = DIRECTION ( 'NONE',  ( -1.084202172485504400E-016, 1.000000000000000000, 0.0000000000000000000 ) ) ;
#101 = DIRECTION ( 'NONE',  ( 1.000000000000000000, 0.0000000000000000000, 0.0000000000000000000 ) ) ;
#102 = PERSON_AND_ORGANIZATION ( #45, #77 ) ;
#103 = ORIENTED_EDGE ( 'NONE', *, *, #34, .F. ) ;
#104 = PERSON_AND_ORGANIZATION ( #45, #77 ) ;
#105 = ORIENTED_EDGE ( 'NONE', *, *, #22, .F. ) ;
#106 = ORIENTED_EDGE ( 'NONE', *, *, #20, .T. ) ;
#107 = ORIENTED_EDGE ( 'NONE', *, *, #29, .T. ) ;
#108 = ORIENTED_EDGE ( 'NONE', *, *, #27, .T. ) ;
#109 = CARTESIAN_POINT ( 'NONE',  ( -7.500000000000001800, 4.000000000000000000, 500.0000000000000000 ) ) ;
#110 = EDGE_LOOP ( 'NONE', ( #97, #94, #108, #211 ) ) ;
#111 = EDGE_LOOP ( 'NONE', ( #217, #215, #216, #95 ) ) ;
#112 = EDGE_LOOP ( 'NONE', ( #106, #164, #105, #93 ) ) ;
#113 = EDGE_LOOP ( 'NONE', ( #98, #96, #92, #99 ) ) ;
#114 = EDGE_LOOP ( 'NONE', ( #214, #218, #177, #219 ) ) ;
#115 = EDGE_LOOP ( 'NONE', ( #206, #103, #210, #107 ) ) ;
#116 = DIRECTION ( 'NONE',  ( -0.0000000000000000000, 0.0000000000000000000, 1.000000000000000000 ) ) ;
#117 = LINE ( 'NONE', #119, #58 ) ;
#118 = PERSON_AND_ORGANIZATION ( #45, #77 ) ;
#119 = CARTESIAN_POINT ( 'NONE',  ( -7.500000000000000900, -4.000000000000000000, -500.0000000000000000 ) ) ;
#120 = DIRECTION ( 'NONE',  ( 1.000000000000000000, 0.0000000000000000000, 0.0000000000000000000 ) ) ;
#121 = PLANE ( 'NONE',  #76 ) ;
#122 = LINE ( 'NONE', #125, #89 ) ;
#123 = MECHANICAL_CONTEXT ( 'NONE', #40, 'mechanical' ) ;
#124 = CARTESIAN_POINT ( 'NONE',  ( 0.0000000000000000000, 0.0000000000000000000, -500.0000000000000000 ) ) ;
#125 = CARTESIAN_POINT ( 'NONE',  ( -7.500000000000001800, 4.000000000000000000, 500.0000000000000000 ) ) ;
#126 = DIRECTION ( 'NONE',  ( 1.084202172485504400E-016, -1.000000000000000000, 0.0000000000000000000 ) ) ;
#127 = VERTEX_POINT ( 'NONE', #187 ) ;
#128 = LINE ( 'NONE', #130, #54 ) ;
#129 = PERSON_AND_ORGANIZATION_ROLE ( 'design_owner' ) ;
#130 = CARTESIAN_POINT ( 'NONE',  ( -7.500000000000000900, -4.000000000000000000, 500.0000000000000000 ) ) ;
#131 = LINE ( 'NONE', #221, #67 ) ;
#132 = DATE_TIME_ROLE ( 'classification_date' ) ;
#133 = DIRECTION ( 'NONE',  ( -0.0000000000000000000, -0.0000000000000000000, -1.000000000000000000 ) ) ;
#134 = APPLICATION_PROTOCOL_DEFINITION ( 'international standard', 'config_control_design', 1994, #41 ) ;
#135 = CARTESIAN_POINT ( 'NONE',  ( -7.500000000000001800, 4.000000000000000000, 500.0000000000000000 ) ) ;
#136 = DIRECTION ( 'NONE',  ( 0.0000000000000000000, -1.000000000000000000, 0.0000000000000000000 ) ) ;
#137 = DIRECTION ( 'NONE',  ( 0.0000000000000000000, -0.0000000000000000000, -1.000000000000000000 ) ) ;
#138 = LINE ( 'NONE', #140, #50 ) ;
#139 = DIRECTION ( 'NONE',  ( 1.000000000000000000, 0.0000000000000000000, 0.0000000000000000000 ) ) ;
#140 = CARTESIAN_POINT ( 'NONE',  ( 7.499999999999998200, 4.000000000000000000, -500.0000000000000000 ) ) ;
#141 = PERSON_AND_ORGANIZATION_ROLE ( 'creator' ) ;
#142 = DIRECTION ( 'NONE',  ( -2.168404344971008900E-016, 1.000000000000000000, -0.0000000000000000000 ) ) ;
#143 = PLANE ( 'NONE',  #59 ) ;
#144 = PERSON_AND_ORGANIZATION ( #45, #77 ) ;
#145 = CARTESIAN_POINT ( 'NONE',  ( 0.0000000000000000000, 0.0000000000000000000, 500.0000000000000000 ) ) ;
#146 = DIRECTION ( 'NONE',  ( -0.0000000000000000000, 0.0000000000000000000, 1.000000000000000000 ) ) ;
#147 = DIRECTION ( 'NONE',  ( 1.000000000000000000, 0.0000000000000000000, 0.0000000000000000000 ) ) ;
#148 = LINE ( 'NONE', #149, #53 ) ;
#149 = CARTESIAN_POINT ( 'NONE',  ( -7.500000000000001800, 4.000000000000000000, -500.0000000000000000 ) ) ;
#150 = APPROVAL_ROLE ( '' ) ;
#151 = PERSON_AND_ORGANIZATION_ROLE ( 'classification_officer' ) ;
#152 = DIRECTION ( 'NONE',  ( -1.000000000000000000, -0.0000000000000000000, -0.0000000000000000000 ) ) ;
#153 = PLANE ( 'NONE',  #55 ) ;
#154 = CARTESIAN_POINT ( 'NONE',  ( -7.500000000000000900, -4.000000000000000000, 500.0000000000000000 ) ) ;
#155 = APPROVAL_DATE_TIME ( #204, #2 ) ;
#156 = DIRECTION ( 'NONE',  ( 0.0000000000000000000, 1.000000000000000000, 0.0000000000000000000 ) ) ;
#157 = DIRECTION ( 'NONE',  ( 0.0000000000000000000, -0.0000000000000000000, 1.000000000000000000 ) ) ;
#158 = LINE ( 'NONE', #159, #51 ) ;
#159 = CARTESIAN_POINT ( 'NONE',  ( -7.500000000000001800, 4.000000000000000000, 500.0000000000000000 ) ) ;
#160 = DIRECTION ( 'NONE',  ( -1.000000000000000000, -0.0000000000000000000, -0.0000000000000000000 ) ) ;
#161 = DIRECTION ( 'NONE',  ( 2.168404344971008900E-016, -1.000000000000000000, 0.0000000000000000000 ) ) ;
#162 = PERSON_AND_ORGANIZATION_ROLE ( 'design_supplier' ) ;
#163 = DIRECTION ( 'NONE',  ( -2.168404344971008900E-016, 1.000000000000000000, -0.0000000000000000000 ) ) ;
#164 = ORIENTED_EDGE ( 'NONE', *, *, #31, .F. ) ;
#165 = PLANE ( 'NONE',  #72 ) ;
#166 = LINE ( 'NONE', #167, #62 ) ;
#167 = CARTESIAN_POINT ( 'NONE',  ( 7.499999999999998200, 4.000000000000000000, 500.0000000000000000 ) ) ;
#168 = CARTESIAN_POINT ( 'NONE',  ( 7.499999999999998200, 4.000000000000000000, 500.0000000000000000 ) ) ;
#169 = DIRECTION ( 'NONE',  ( -1.000000000000000000, -2.168404344971008900E-016, 0.0000000000000000000 ) ) ;
#170 = PLANE ( 'NONE',  #75 ) ;
#171 = APPLICATION_PROTOCOL_DEFINITION ( 'international standard', 'config_control_design', 1994, #40 ) ;
#172 = DIRECTION ( 'NONE',  ( 1.000000000000000000, 1.084202172485504400E-016, -0.0000000000000000000 ) ) ;
#173 = CARTESIAN_POINT ( 'NONE',  ( 7.500000000000000000, -4.000000000000000000, 500.0000000000000000 ) ) ;
#174 = VERTEX_POINT ( 'NONE', #228 ) ;
#175 = LINE ( 'NONE', #198, #64 ) ;
#176 = LINE ( 'NONE', #173, #56 ) ;
#177 = ORIENTED_EDGE ( 'NONE', *, *, #33, .F. ) ;
#178 = DIRECTION ( 'NONE',  ( -0.0000000000000000000, -0.0000000000000000000, -1.000000000000000000 ) ) ;
#179 = PLANE ( 'NONE',  #57 ) ;
#180 = PERSON_AND_ORGANIZATION ( #45, #77 ) ;
#181 = SHAPE_DEFINITION_REPRESENTATION ( #37, #44 ) ;
#182 = VERTEX_POINT ( 'NONE', #109 ) ;
#183 = APPROVAL_DATE_TIME ( #190, #9 ) ;
#184 = DIRECTION ( 'NONE',  ( 0.0000000000000000000, 0.0000000000000000000, 1.000000000000000000 ) ) ;
#185 = CARTESIAN_POINT ( 'NONE',  ( -7.500000000000001800, 4.000000000000000000, 500.0000000000000000 ) ) ;
#186 = SECURITY_CLASSIFICATION_LEVEL ( 'unclassified' ) ;
#187 = CARTESIAN_POINT ( 'NONE',  ( 7.500000000000000000, -4.000000000000000000, -500.0000000000000000 ) ) ;
#188 = DATE_AND_TIME ( #69, #4 ) ;
#189 = CARTESIAN_POINT ( 'NONE',  ( 0.0000000000000000000, 0.0000000000000000000, 0.0000000000000000000 ) ) ;
#190 = DATE_AND_TIME ( #85, #7 ) ;
#191 = APPROVAL_STATUS ( 'not_yet_approved' ) ;
#192 = PERSON_AND_ORGANIZATION ( #45, #77 ) ;
#193 = APPROVAL_ROLE ( '' ) ;
#194 = APPROVAL_STATUS ( 'not_yet_approved' ) ;
#195 = APPROVAL_DATE_TIME ( #196, #30 ) ;
#196 = DATE_AND_TIME ( #79, #24 ) ;
#197 = PERSON_AND_ORGANIZATION_ROLE ( 'creator' ) ;
#198 = CARTESIAN_POINT ( 'NONE',  ( -7.500000000000001800, 4.000000000000000000, 500.0000000000000000 ) ) ;
#199 = PERSON_AND_ORGANIZATION ( #45, #77 ) ;
#200 = DATE_TIME_ROLE ( 'creation_date' ) ;
#201 = DATE_AND_TIME ( #80, #36 ) ;
#202 = APPROVAL_STATUS ( 'not_yet_approved' ) ;
#203 = PERSON_AND_ORGANIZATION ( #45, #77 ) ;
#204 = DATE_AND_TIME ( #84, #5 ) ;
#205 = APPROVAL_ROLE ( '' ) ;
#206 = ORIENTED_EDGE ( 'NONE', *, *, #18, .T. ) ;
#207 =( NAMED_UNIT ( * ) SI_UNIT ( $, .STERADIAN. ) SOLID_ANGLE_UNIT ( ) );
#208 =( NAMED_UNIT ( * ) PLANE_ANGLE_UNIT ( ) SI_UNIT ( $, .RADIAN. ) );
#209 =( LENGTH_UNIT ( ) NAMED_UNIT ( * ) SI_UNIT ( .MILLI., .METRE. ) );
#210 = ORIENTED_EDGE ( 'NONE', *, *, #27, .F. ) ;
#211 = ORIENTED_EDGE ( 'NONE', *, *, #22, .T. ) ;
#212 = DIRECTION ( 'NONE',  ( -0.0000000000000000000, -0.0000000000000000000, -1.000000000000000000 ) ) ;
#213 = VERTEX_POINT ( 'NONE', #225 ) ;
#214 = ORIENTED_EDGE ( 'NONE', *, *, #13, .T. ) ;
#215 = ORIENTED_EDGE ( 'NONE', *, *, #16, .F. ) ;
#216 = ORIENTED_EDGE ( 'NONE', *, *, #15, .F. ) ;
#217 = ORIENTED_EDGE ( 'NONE', *, *, #35, .T. ) ;
#218 = ORIENTED_EDGE ( 'NONE', *, *, #29, .F. ) ;
#219 = ORIENTED_EDGE ( 'NONE', *, *, #16, .T. ) ;
#220 = CARTESIAN_POINT ( 'NONE',  ( -7.500000000000000900, -4.000000000000000000, 500.0000000000000000 ) ) ;
#221 = CARTESIAN_POINT ( 'NONE',  ( 7.499999999999998200, 4.000000000000000000, 500.0000000000000000 ) ) ;
#222 = DIRECTION ( 'NONE',  ( -0.0000000000000000000, -0.0000000000000000000, -1.000000000000000000 ) ) ;
#223 = CARTESIAN_POINT ( 'NONE',  ( -7.500000000000001800, 4.000000000000000000, -500.0000000000000000 ) ) ;
#224 = DIRECTION ( 'NONE',  ( 1.000000000000000000, 0.0000000000000000000, 0.0000000000000000000 ) ) ;
#225 = CARTESIAN_POINT ( 'NONE',  ( 7.499999999999998200, 4.000000000000000000, 500.0000000000000000 ) ) ;
#226 = LINE ( 'NONE', #223, #74 ) ;
#227 = DIRECTION ( 'NONE',  ( 1.084202172485504400E-016, -1.000000000000000000, 0.0000000000000000000 ) ) ;
#228 = CARTESIAN_POINT ( 'NONE',  ( 7.499999999999998200, 4.000000000000000000, -500.0000000000000000 ) ) ;
#229 = LINE ( 'NONE', #220, #78 ) ;
#230 = VERTEX_POINT ( 'NONE', #233 ) ;
#231 = VERTEX_POINT ( 'NONE', #232 ) ;
#232 = CARTESIAN_POINT ( 'NONE',  ( -7.500000000000000900, -4.000000000000000000, -500.0000000000000000 ) ) ;
#233 = CARTESIAN_POINT ( 'NONE',  ( -7.500000000000000900, -4.000000000000000000, 500.0000000000000000 ) ) ;
#234 = CARTESIAN_POINT ( 'NONE',  ( 7.500000000000000000, -4.000000000000000000, 500.0000000000000000 ) ) ;
#235 = CARTESIAN_POINT ( 'NONE',  ( -7.500000000000001800, 4.000000000000000000, -500.0000000000000000 ) ) ;
#236 = VERTEX_POINT ( 'NONE', #235 ) ;
#237 = VERTEX_POINT ( 'NONE', #234 ) ;
ENDSEC;
END-ISO-10303-21;
