ISO-10303-21;
HEADER;
FILE_DESCRIPTION (( 'STEP AP203' ),
    '1' );
FILE_NAME ('sone3D.STEP',
    '2015-08-11T10:17:47',
    ( '' ),
    ( '' ),
    'SwSTEP 2.0',
    'SolidWorks 2012',
    '' );
FILE_SCHEMA (( 'CONFIG_CONTROL_DESIGN' ));
ENDSEC;

DATA;
#1 = PRODUCT ( 'sone3D', 'sone3D', '', ( #129 ) ) ;
#2 = ADVANCED_FACE ( 'NONE', ( #70 ), #110, .F. ) ;
#3 = ADVANCED_FACE ( 'NONE', ( #72 ), #219, .F. ) ;
#4 = APPROVAL ( #115, 'UNSPECIFIED' ) ;
#5 = EDGE_CURVE ( 'NONE', #191, #182, #229, .T. ) ;
#6 = EDGE_CURVE ( 'NONE', #191, #184, #217, .T. ) ;
#7 = EDGE_CURVE ( 'NONE', #192, #208, #127, .T. ) ;
#8 = EDGE_CURVE ( 'NONE', #182, #207, #167, .T. ) ;
#9 = EDGE_CURVE ( 'NONE', #207, #208, #107, .T. ) ;
#10 = LOCAL_TIME ( 19, 17, 47.00000000000000000, #56 ) ;
#11 = LOCAL_TIME ( 19, 17, 47.00000000000000000, #59 ) ;
#12 = PRODUCT_RELATED_PRODUCT_CATEGORY ( 'detail', '', ( #1 ) ) ;
#13 = EDGE_CURVE ( 'NONE', #186, #191, #93, .T. ) ;
#14 = EDGE_CURVE ( 'NONE', #192, #186, #92, .T. ) ;
#15 = ADVANCED_FACE ( 'NONE', ( #91 ), #215, .T. ) ;
#16 = EDGE_CURVE ( 'NONE', #186, #206, #237, .T. ) ;
#17 = EDGE_CURVE ( 'NONE', #206, #184, #136, .T. ) ;
#18 = CC_DESIGN_PERSON_AND_ORGANIZATION_ASSIGNMENT ( #226, #204, ( #1 ) ) ;
#19 = CC_DESIGN_PERSON_AND_ORGANIZATION_ASSIGNMENT ( #169, #193, ( #54 ) ) ;
#20 = CC_DESIGN_PERSON_AND_ORGANIZATION_ASSIGNMENT ( #203, #205, ( #69 ) ) ;
#21 = LOCAL_TIME ( 19, 17, 47.00000000000000000, #55 ) ;
#22 = CC_DESIGN_DATE_AND_TIME_ASSIGNMENT ( #155, #236, ( #69 ) ) ;
#23 = APPROVAL ( #234, 'UNSPECIFIED' ) ;
#24 = EDGE_CURVE ( 'NONE', #184, #207, #119, .T. ) ;
#25 = EDGE_CURVE ( 'NONE', #208, #206, #97, .T. ) ;
#26 = PRODUCT_DEFINITION ( 'UNKNOWN', '', #54, #40 ) ;
#27 = LOCAL_TIME ( 19, 17, 47.00000000000000000, #48 ) ;
#28 = CC_DESIGN_PERSON_AND_ORGANIZATION_ASSIGNMENT ( #114, #105, ( #26 ) ) ;
#29 = CC_DESIGN_PERSON_AND_ORGANIZATION_ASSIGNMENT ( #201, #165, ( #54 ) ) ;
#30 = LOCAL_TIME ( 19, 17, 47.00000000000000000, #77 ) ;
#31 = CC_DESIGN_DATE_AND_TIME_ASSIGNMENT ( #183, #195, ( #26 ) ) ;
#32 = APPROVAL ( #111, 'UNSPECIFIED' ) ;
#33 = ADVANCED_FACE ( 'NONE', ( #50 ), #190, .F. ) ;
#34 = ADVANCED_FACE ( 'NONE', ( #82 ), #132, .F. ) ;
#35 = ADVANCED_FACE ( 'NONE', ( #57 ), #102, .F. ) ;
#36 = EDGE_CURVE ( 'NONE', #182, #192, #189, .T. ) ;
#37 =( GEOMETRIC_REPRESENTATION_CONTEXT ( 3 ) GLOBAL_UNCERTAINTY_ASSIGNED_CONTEXT ( ( #43 ) ) GLOBAL_UNIT_ASSIGNED_CONTEXT ( ( #154, #187, #94 ) ) REPRESENTATION_CONTEXT ( 'NONE', 'WORKASPACE' ) );
#38 = PRODUCT_DEFINITION_SHAPE ( 'NONE', 'NONE',  #26 ) ;
#39 = MANIFOLD_SOLID_BREP ( 'ÎÞ½ - µoµ1', #64 ) ;
#40 = DESIGN_CONTEXT ( 'detailed design', #42, 'design' ) ;
#41 = APPLICATION_CONTEXT ( 'configuration controlled 3d designs of mechanical parts and assemblies' ) ;
#42 = APPLICATION_CONTEXT ( 'configuration controlled 3d designs of mechanical parts and assemblies' ) ;
#43 = UNCERTAINTY_MEASURE_WITH_UNIT (LENGTH_MEASURE( 1.000000000000000100E-005 ), #154, 'distance_accuracy_value', 'NONE');
#44 = ADVANCED_BREP_SHAPE_REPRESENTATION ( 'sone3D', ( #39, #85 ), #37 ) ;
#45 = PERSON ( 'UNSPECIFIED', 'UNSPECIFIED', 'UNSPECIFIED', ('UNSPECIFIED'), ('UNSPECIFIED'), ('UNSPECIFIED') ) ;
#46 = VECTOR ( 'NONE', #112, 1000.000000000000000 ) ;
#47 = APPROVAL_PERSON_ORGANIZATION ( #235, #23, #233 ) ;
#48 = COORDINATED_UNIVERSAL_TIME_OFFSET ( 9, 0, .AHEAD. ) ;
#49 = VECTOR ( 'NONE', #143, 1000.000000000000000 ) ;
#50 = FACE_OUTER_BOUND ( 'NONE', #137, .T. ) ;
#51 = APPROVAL_PERSON_ORGANIZATION ( #123, #4, #138 ) ;
#52 = CC_DESIGN_APPROVAL ( #32, ( #54 ) ) ;
#53 = APPROVAL_PERSON_ORGANIZATION ( #196, #32, #162 ) ;
#54 = PRODUCT_DEFINITION_FORMATION_WITH_SPECIFIED_SOURCE ( 'ANY', '', #1, .NOT_KNOWN. ) ;
#55 = COORDINATED_UNIVERSAL_TIME_OFFSET ( 9, 0, .AHEAD. ) ;
#56 = COORDINATED_UNIVERSAL_TIME_OFFSET ( 9, 0, .AHEAD. ) ;
#57 = FACE_OUTER_BOUND ( 'NONE', #212, .T. ) ;
#58 = VECTOR ( 'NONE', #134, 1000.000000000000000 ) ;
#59 = COORDINATED_UNIVERSAL_TIME_OFFSET ( 9, 0, .AHEAD. ) ;
#60 = AXIS2_PLACEMENT_3D ( 'NONE', #146, #104, #147 ) ;
#61 = CC_DESIGN_SECURITY_CLASSIFICATION ( #69, ( #54 ) ) ;
#62 = AXIS2_PLACEMENT_3D ( 'NONE', #131, #113, #122 ) ;
#63 = ORGANIZATION ( 'UNSPECIFIED', 'UNSPECIFIED', '' ) ;
#64 = CLOSED_SHELL ( 'NONE', ( #3, #33, #34, #2, #15, #35 ) ) ;
#65 = VECTOR ( 'NONE', #230, 1000.000000000000000 ) ;
#66 = VECTOR ( 'NONE', #222, 1000.000000000000000 ) ;
#67 = VECTOR ( 'NONE', #96, 1000.000000000000000 ) ;
#68 = AXIS2_PLACEMENT_3D ( 'NONE', #221, #224, #225 ) ;
#69 = SECURITY_CLASSIFICATION ( '', '', #194 ) ;
#70 = FACE_OUTER_BOUND ( 'NONE', #210, .T. ) ;
#71 = CALENDAR_DATE ( 2015, 11, 8 ) ;
#72 = FACE_OUTER_BOUND ( 'NONE', #185, .T. ) ;
#73 = AXIS2_PLACEMENT_3D ( 'NONE', #228, #120, #153 ) ;
#74 = VECTOR ( 'NONE', #95, 1000.000000000000000 ) ;
#75 = AXIS2_PLACEMENT_3D ( 'NONE', #213, #223, #152 ) ;
#76 = VECTOR ( 'NONE', #178, 1000.000000000000000 ) ;
#77 = COORDINATED_UNIVERSAL_TIME_OFFSET ( 9, 0, .AHEAD. ) ;
#78 = VECTOR ( 'NONE', #220, 1000.000000000000000 ) ;
#79 = VECTOR ( 'NONE', #121, 1000.000000000000000 ) ;
#80 = AXIS2_PLACEMENT_3D ( 'NONE', #118, #150, #171 ) ;
#81 = VECTOR ( 'NONE', #159, 1000.000000000000000 ) ;
#82 = FACE_OUTER_BOUND ( 'NONE', #209, .T. ) ;
#83 = CALENDAR_DATE ( 2015, 11, 8 ) ;
#84 = CALENDAR_DATE ( 2015, 11, 8 ) ;
#85 = AXIS2_PLACEMENT_3D ( 'NONE', #100, #99, #199 ) ;
#86 = CC_DESIGN_APPROVAL ( #4, ( #26 ) ) ;
#87 = CC_DESIGN_APPROVAL ( #23, ( #69 ) ) ;
#88 = CALENDAR_DATE ( 2015, 11, 8 ) ;
#89 = CALENDAR_DATE ( 2015, 11, 8 ) ;
#90 = VECTOR ( 'NONE', #163, 1000.000000000000000 ) ;
#91 = FACE_OUTER_BOUND ( 'NONE', #211, .T. ) ;
#92 = LINE ( 'NONE', #179, #79 ) ;
#93 = LINE ( 'NONE', #125, #90 ) ;
#94 =( NAMED_UNIT ( * ) SI_UNIT ( $, .STERADIAN. ) SOLID_ANGLE_UNIT ( ) );
#95 = DIRECTION ( 'NONE',  ( 1.000000000000000000, 0.0000000000000000000, 0.0000000000000000000 ) ) ;
#96 = DIRECTION ( 'NONE',  ( 2.168404344971008900E-016, -1.000000000000000000, 0.0000000000000000000 ) ) ;
#97 = LINE ( 'NONE', #130, #67 ) ;
#98 = CARTESIAN_POINT ( 'NONE',  ( 4.999999999999999100, 4.000000000000001800, 500.0000000000000000 ) ) ;
#99 = DIRECTION ( 'NONE',  ( 0.0000000000000000000, 0.0000000000000000000, 1.000000000000000000 ) ) ;
#100 = CARTESIAN_POINT ( 'NONE',  ( 0.0000000000000000000, 0.0000000000000000000, 0.0000000000000000000 ) ) ;
#101 = ORIENTED_EDGE ( 'NONE', *, *, #6, .F. ) ;
#102 = PLANE ( 'NONE',  #62 ) ;
#103 = CARTESIAN_POINT ( 'NONE',  ( -4.999999999999999100, -3.999999999999997300, -500.0000000000000000 ) ) ;
#104 = DIRECTION ( 'NONE',  ( -0.0000000000000000000, 0.0000000000000000000, 1.000000000000000000 ) ) ;
#105 = PERSON_AND_ORGANIZATION_ROLE ( 'creator' ) ;
#106 = APPLICATION_PROTOCOL_DEFINITION ( 'international standard', 'config_control_design', 1994, #41 ) ;
#107 = LINE ( 'NONE', #160, #81 ) ;
#108 = APPLICATION_PROTOCOL_DEFINITION ( 'international standard', 'config_control_design', 1994, #42 ) ;
#109 = CARTESIAN_POINT ( 'NONE',  ( -4.999999999999999100, -3.999999999999997300, -500.0000000000000000 ) ) ;
#110 = PLANE ( 'NONE',  #75 ) ;
#111 = APPROVAL_STATUS ( 'not_yet_approved' ) ;
#112 = DIRECTION ( 'NONE',  ( -0.0000000000000000000, -0.0000000000000000000, -1.000000000000000000 ) ) ;
#113 = DIRECTION ( 'NONE',  ( -0.0000000000000000000, 0.0000000000000000000, 1.000000000000000000 ) ) ;
#114 = PERSON_AND_ORGANIZATION ( #45, #63 ) ;
#115 = APPROVAL_STATUS ( 'not_yet_approved' ) ;
#116 = CARTESIAN_POINT ( 'NONE',  ( -4.999999999999999100, -3.999999999999997300, 500.0000000000000000 ) ) ;
#117 = CARTESIAN_POINT ( 'NONE',  ( -5.000000000000000900, 4.000000000000001800, 500.0000000000000000 ) ) ;
#118 = CARTESIAN_POINT ( 'NONE',  ( -4.999999999999999100, -3.999999999999997300, 500.0000000000000000 ) ) ;
#119 = LINE ( 'NONE', #166, #76 ) ;
#120 = DIRECTION ( 'NONE',  ( -1.000000000000000000, 0.0000000000000000000, 0.0000000000000000000 ) ) ;
#121 = DIRECTION ( 'NONE',  ( 2.168404344971008900E-016, -1.000000000000000000, 0.0000000000000000000 ) ) ;
#122 = DIRECTION ( 'NONE',  ( 1.000000000000000000, 0.0000000000000000000, 0.0000000000000000000 ) ) ;
#123 = PERSON_AND_ORGANIZATION ( #45, #63 ) ;
#124 = CARTESIAN_POINT ( 'NONE',  ( -4.999999999999999100, -3.999999999999997300, 500.0000000000000000 ) ) ;
#125 = CARTESIAN_POINT ( 'NONE',  ( -4.999999999999999100, -3.999999999999997300, 500.0000000000000000 ) ) ;
#126 = DATE_AND_TIME ( #89, #10 ) ;
#127 = LINE ( 'NONE', #218, #65 ) ;
#128 = ORIENTED_EDGE ( 'NONE', *, *, #5, .F. ) ;
#129 = MECHANICAL_CONTEXT ( 'NONE', #41, 'mechanical' ) ;
#130 = CARTESIAN_POINT ( 'NONE',  ( -5.000000000000000900, 4.000000000000001800, -500.0000000000000000 ) ) ;
#131 = CARTESIAN_POINT ( 'NONE',  ( 0.0000000000000000000, 0.0000000000000000000, -500.0000000000000000 ) ) ;
#132 = PLANE ( 'NONE',  #73 ) ;
#133 = CARTESIAN_POINT ( 'NONE',  ( 4.999999999999999100, 4.000000000000001800, -500.0000000000000000 ) ) ;
#134 = DIRECTION ( 'NONE',  ( -1.000000000000000000, -0.0000000000000000000, -0.0000000000000000000 ) ) ;
#135 = ORIENTED_EDGE ( 'NONE', *, *, #25, .F. ) ;
#136 = LINE ( 'NONE', #109, #74 ) ;
#137 = EDGE_LOOP ( 'NONE', ( #139, #101, #177, #175 ) ) ;
#138 = APPROVAL_ROLE ( '' ) ;
#139 = ORIENTED_EDGE ( 'NONE', *, *, #17, .T. ) ;
#140 = ORIENTED_EDGE ( 'NONE', *, *, #24, .F. ) ;
#141 = ORIENTED_EDGE ( 'NONE', *, *, #17, .F. ) ;
#142 = ORIENTED_EDGE ( 'NONE', *, *, #5, .T. ) ;
#143 = DIRECTION ( 'NONE',  ( -0.0000000000000000000, -0.0000000000000000000, -1.000000000000000000 ) ) ;
#144 = ORIENTED_EDGE ( 'NONE', *, *, #7, .F. ) ;
#145 = ORIENTED_EDGE ( 'NONE', *, *, #36, .T. ) ;
#146 = CARTESIAN_POINT ( 'NONE',  ( 0.0000000000000000000, 0.0000000000000000000, 500.0000000000000000 ) ) ;
#147 = DIRECTION ( 'NONE',  ( 1.000000000000000000, 0.0000000000000000000, 0.0000000000000000000 ) ) ;
#148 = ORIENTED_EDGE ( 'NONE', *, *, #16, .F. ) ;
#149 = ORIENTED_EDGE ( 'NONE', *, *, #36, .F. ) ;
#150 = DIRECTION ( 'NONE',  ( 0.0000000000000000000, 1.000000000000000000, 0.0000000000000000000 ) ) ;
#151 = ORIENTED_EDGE ( 'NONE', *, *, #9, .T. ) ;
#152 = DIRECTION ( 'NONE',  ( 0.0000000000000000000, -0.0000000000000000000, -1.000000000000000000 ) ) ;
#153 = DIRECTION ( 'NONE',  ( 0.0000000000000000000, 0.0000000000000000000, 1.000000000000000000 ) ) ;
#154 =( LENGTH_UNIT ( ) NAMED_UNIT ( * ) SI_UNIT ( .MILLI., .METRE. ) );
#155 = DATE_AND_TIME ( #88, #21 ) ;
#156 = ORIENTED_EDGE ( 'NONE', *, *, #6, .T. ) ;
#157 = ORIENTED_EDGE ( 'NONE', *, *, #8, .F. ) ;
#158 = ORIENTED_EDGE ( 'NONE', *, *, #24, .T. ) ;
#159 = DIRECTION ( 'NONE',  ( -1.000000000000000000, -0.0000000000000000000, -0.0000000000000000000 ) ) ;
#160 = CARTESIAN_POINT ( 'NONE',  ( -5.000000000000000900, 4.000000000000001800, -500.0000000000000000 ) ) ;
#161 = ORIENTED_EDGE ( 'NONE', *, *, #8, .T. ) ;
#162 = APPROVAL_ROLE ( '' ) ;
#163 = DIRECTION ( 'NONE',  ( 1.000000000000000000, 0.0000000000000000000, 0.0000000000000000000 ) ) ;
#164 = ORIENTED_EDGE ( 'NONE', *, *, #14, .T. ) ;
#165 = PERSON_AND_ORGANIZATION_ROLE ( 'creator' ) ;
#166 = CARTESIAN_POINT ( 'NONE',  ( 4.999999999999999100, 4.000000000000001800, -500.0000000000000000 ) ) ;
#167 = LINE ( 'NONE', #98, #46 ) ;
#168 = ORIENTED_EDGE ( 'NONE', *, *, #13, .T. ) ;
#169 = PERSON_AND_ORGANIZATION ( #45, #63 ) ;
#170 = ORIENTED_EDGE ( 'NONE', *, *, #25, .T. ) ;
#171 = DIRECTION ( 'NONE',  ( 0.0000000000000000000, -0.0000000000000000000, 1.000000000000000000 ) ) ;
#172 = APPROVAL_DATE_TIME ( #126, #4 ) ;
#173 = ORIENTED_EDGE ( 'NONE', *, *, #7, .T. ) ;
#174 = CARTESIAN_POINT ( 'NONE',  ( 4.999999999999999100, 4.000000000000001800, 500.0000000000000000 ) ) ;
#175 = ORIENTED_EDGE ( 'NONE', *, *, #16, .T. ) ;
#176 = CARTESIAN_POINT ( 'NONE',  ( 4.999999999999999100, -3.999999999999997300, -500.0000000000000000 ) ) ;
#177 = ORIENTED_EDGE ( 'NONE', *, *, #13, .F. ) ;
#178 = DIRECTION ( 'NONE',  ( -0.0000000000000000000, 1.000000000000000000, -0.0000000000000000000 ) ) ;
#179 = CARTESIAN_POINT ( 'NONE',  ( -5.000000000000000900, 4.000000000000001800, 500.0000000000000000 ) ) ;
#180 = APPROVAL_DATE_TIME ( #202, #32 ) ;
#181 = ORIENTED_EDGE ( 'NONE', *, *, #14, .F. ) ;
#182 = VERTEX_POINT ( 'NONE', #174 ) ;
#183 = DATE_AND_TIME ( #84, #30 ) ;
#184 = VERTEX_POINT ( 'NONE', #176 ) ;
#185 = EDGE_LOOP ( 'NONE', ( #170, #148, #181, #173 ) ) ;
#186 = VERTEX_POINT ( 'NONE', #124 ) ;
#187 =( NAMED_UNIT ( * ) PLANE_ANGLE_UNIT ( ) SI_UNIT ( $, .RADIAN. ) );
#188 = ORIENTED_EDGE ( 'NONE', *, *, #9, .F. ) ;
#189 = LINE ( 'NONE', #117, #58 ) ;
#190 = PLANE ( 'NONE',  #80 ) ;
#191 = VERTEX_POINT ( 'NONE', #197 ) ;
#192 = VERTEX_POINT ( 'NONE', #198 ) ;
#193 = PERSON_AND_ORGANIZATION_ROLE ( 'design_supplier' ) ;
#194 = SECURITY_CLASSIFICATION_LEVEL ( 'unclassified' ) ;
#195 = DATE_TIME_ROLE ( 'creation_date' ) ;
#196 = PERSON_AND_ORGANIZATION ( #45, #63 ) ;
#197 = CARTESIAN_POINT ( 'NONE',  ( 4.999999999999999100, -3.999999999999997300, 500.0000000000000000 ) ) ;
#198 = CARTESIAN_POINT ( 'NONE',  ( -5.000000000000000900, 4.000000000000001800, 500.0000000000000000 ) ) ;
#199 = DIRECTION ( 'NONE',  ( 1.000000000000000000, 0.0000000000000000000, 0.0000000000000000000 ) ) ;
#200 = SHAPE_DEFINITION_REPRESENTATION ( #38, #44 ) ;
#201 = PERSON_AND_ORGANIZATION ( #45, #63 ) ;
#202 = DATE_AND_TIME ( #71, #27 ) ;
#203 = PERSON_AND_ORGANIZATION ( #45, #63 ) ;
#204 = PERSON_AND_ORGANIZATION_ROLE ( 'design_owner' ) ;
#205 = PERSON_AND_ORGANIZATION_ROLE ( 'classification_officer' ) ;
#206 = VERTEX_POINT ( 'NONE', #103 ) ;
#207 = VERTEX_POINT ( 'NONE', #133 ) ;
#208 = VERTEX_POINT ( 'NONE', #227 ) ;
#209 = EDGE_LOOP ( 'NONE', ( #158, #157, #128, #156 ) ) ;
#210 = EDGE_LOOP ( 'NONE', ( #151, #144, #149, #161 ) ) ;
#211 = EDGE_LOOP ( 'NONE', ( #164, #168, #142, #145 ) ) ;
#212 = EDGE_LOOP ( 'NONE', ( #135, #188, #140, #141 ) ) ;
#213 = CARTESIAN_POINT ( 'NONE',  ( -5.000000000000000900, 4.000000000000001800, 500.0000000000000000 ) ) ;
#214 = CARTESIAN_POINT ( 'NONE',  ( 4.999999999999999100, -3.999999999999997300, 500.0000000000000000 ) ) ;
#215 = PLANE ( 'NONE',  #60 ) ;
#216 = CARTESIAN_POINT ( 'NONE',  ( 4.999999999999999100, 4.000000000000001800, 500.0000000000000000 ) ) ;
#217 = LINE ( 'NONE', #214, #78 ) ;
#218 = CARTESIAN_POINT ( 'NONE',  ( -5.000000000000000900, 4.000000000000001800, 500.0000000000000000 ) ) ;
#219 = PLANE ( 'NONE',  #68 ) ;
#220 = DIRECTION ( 'NONE',  ( -0.0000000000000000000, -0.0000000000000000000, -1.000000000000000000 ) ) ;
#221 = CARTESIAN_POINT ( 'NONE',  ( -5.000000000000000900, 4.000000000000001800, 500.0000000000000000 ) ) ;
#222 = DIRECTION ( 'NONE',  ( -0.0000000000000000000, 1.000000000000000000, -0.0000000000000000000 ) ) ;
#223 = DIRECTION ( 'NONE',  ( 0.0000000000000000000, -1.000000000000000000, 0.0000000000000000000 ) ) ;
#224 = DIRECTION ( 'NONE',  ( 1.000000000000000000, 2.168404344971008900E-016, -0.0000000000000000000 ) ) ;
#225 = DIRECTION ( 'NONE',  ( -2.168404344971008900E-016, 1.000000000000000000, 0.0000000000000000000 ) ) ;
#226 = PERSON_AND_ORGANIZATION ( #45, #63 ) ;
#227 = CARTESIAN_POINT ( 'NONE',  ( -5.000000000000000900, 4.000000000000001800, -500.0000000000000000 ) ) ;
#228 = CARTESIAN_POINT ( 'NONE',  ( 4.999999999999999100, 4.000000000000001800, 500.0000000000000000 ) ) ;
#229 = LINE ( 'NONE', #216, #66 ) ;
#230 = DIRECTION ( 'NONE',  ( -0.0000000000000000000, -0.0000000000000000000, -1.000000000000000000 ) ) ;
#231 = DATE_AND_TIME ( #83, #11 ) ;
#232 = APPROVAL_DATE_TIME ( #231, #23 ) ;
#233 = APPROVAL_ROLE ( '' ) ;
#234 = APPROVAL_STATUS ( 'not_yet_approved' ) ;
#235 = PERSON_AND_ORGANIZATION ( #45, #63 ) ;
#236 = DATE_TIME_ROLE ( 'classification_date' ) ;
#237 = LINE ( 'NONE', #116, #49 ) ;
ENDSEC;
END-ISO-10303-21;
