ISO-10303-21;
HEADER;
FILE_DESCRIPTION (( 'STEP AP203' ),
    '1' );
FILE_NAME ('sone3D.STEP',
    '2015-08-11T10:17:20',
    ( '' ),
    ( '' ),
    'SwSTEP 2.0',
    'SolidWorks 2012',
    '' );
FILE_SCHEMA (( 'CONFIG_CONTROL_DESIGN' ));
ENDSEC;

DATA;
#1 = DESIGN_CONTEXT ( 'detailed design', #174, 'design' ) ;
#2 = MANIFOLD_SOLID_BREP ( 'ÎÞ½ - µoµ1', #5 ) ;
#3 = PRODUCT_DEFINITION_SHAPE ( 'NONE', 'NONE',  #228 ) ;
#4 = AXIS2_PLACEMENT_3D ( 'NONE', #110, #107, #104 ) ;
#5 = CLOSED_SHELL ( 'NONE', ( #206, #223, #232, #231, #202, #225 ) ) ;
#6 = VECTOR ( 'NONE', #86, 1000.000000000000000 ) ;
#7 = VECTOR ( 'NONE', #92, 1000.000000000000000 ) ;
#8 = VECTOR ( 'NONE', #98, 1000.000000000000000 ) ;
#9 = AXIS2_PLACEMENT_3D ( 'NONE', #74, #75, #76 ) ;
#10 = AXIS2_PLACEMENT_3D ( 'NONE', #87, #88, #89 ) ;
#11 = FACE_OUTER_BOUND ( 'NONE', #29, .T. ) ;
#12 = FACE_OUTER_BOUND ( 'NONE', #30, .T. ) ;
#13 = FACE_OUTER_BOUND ( 'NONE', #32, .T. ) ;
#14 = VECTOR ( 'NONE', #100, 1000.000000000000000 ) ;
#15 = VECTOR ( 'NONE', #115, 1000.000000000000000 ) ;
#16 = VECTOR ( 'NONE', #119, 1000.000000000000000 ) ;
#17 = VECTOR ( 'NONE', #109, 1000.000000000000000 ) ;
#18 = FACE_OUTER_BOUND ( 'NONE', #28, .T. ) ;
#19 = FACE_OUTER_BOUND ( 'NONE', #27, .T. ) ;
#20 = FACE_OUTER_BOUND ( 'NONE', #31, .T. ) ;
#21 = VECTOR ( 'NONE', #83, 1000.000000000000000 ) ;
#22 = VECTOR ( 'NONE', #97, 1000.000000000000000 ) ;
#23 = AXIS2_PLACEMENT_3D ( 'NONE', #120, #121, #122 ) ;
#24 = AXIS2_PLACEMENT_3D ( 'NONE', #124, #125, #126 ) ;
#25 = VECTOR ( 'NONE', #79, 1000.000000000000000 ) ;
#26 = AXIS2_PLACEMENT_3D ( 'NONE', #111, #106, #113 ) ;
#27 = EDGE_LOOP ( 'NONE', ( #41, #62, #59, #56 ) ) ;
#28 = EDGE_LOOP ( 'NONE', ( #63, #58, #64, #61 ) ) ;
#29 = EDGE_LOOP ( 'NONE', ( #54, #53, #55, #48 ) ) ;
#30 = EDGE_LOOP ( 'NONE', ( #52, #60, #57, #46 ) ) ;
#31 = EDGE_LOOP ( 'NONE', ( #47, #44, #43, #42 ) ) ;
#32 = EDGE_LOOP ( 'NONE', ( #45, #50, #51, #49 ) ) ;
#33 = VERTEX_POINT ( 'NONE', #65 ) ;
#34 = VERTEX_POINT ( 'NONE', #66 ) ;
#35 = VERTEX_POINT ( 'NONE', #67 ) ;
#36 = VERTEX_POINT ( 'NONE', #68 ) ;
#37 = VERTEX_POINT ( 'NONE', #69 ) ;
#38 = VERTEX_POINT ( 'NONE', #70 ) ;
#39 = VERTEX_POINT ( 'NONE', #71 ) ;
#40 = VERTEX_POINT ( 'NONE', #72 ) ;
#41 = ORIENTED_EDGE ( 'NONE', *, *, #205, .T. ) ;
#42 = ORIENTED_EDGE ( 'NONE', *, *, #230, .T. ) ;
#43 = ORIENTED_EDGE ( 'NONE', *, *, #204, .F. ) ;
#44 = ORIENTED_EDGE ( 'NONE', *, *, #222, .F. ) ;
#45 = ORIENTED_EDGE ( 'NONE', *, *, #218, .T. ) ;
#46 = ORIENTED_EDGE ( 'NONE', *, *, #203, .T. ) ;
#47 = ORIENTED_EDGE ( 'NONE', *, *, #221, .T. ) ;
#48 = ORIENTED_EDGE ( 'NONE', *, *, #218, .F. ) ;
#49 = ORIENTED_EDGE ( 'NONE', *, *, #216, .T. ) ;
#50 = ORIENTED_EDGE ( 'NONE', *, *, #230, .F. ) ;
#51 = ORIENTED_EDGE ( 'NONE', *, *, #227, .F. ) ;
#52 = ORIENTED_EDGE ( 'NONE', *, *, #207, .T. ) ;
#53 = ORIENTED_EDGE ( 'NONE', *, *, #205, .F. ) ;
#54 = ORIENTED_EDGE ( 'NONE', *, *, #207, .F. ) ;
#55 = ORIENTED_EDGE ( 'NONE', *, *, #221, .F. ) ;
#56 = ORIENTED_EDGE ( 'NONE', *, *, #222, .T. ) ;
#57 = ORIENTED_EDGE ( 'NONE', *, *, #235, .F. ) ;
#58 = ORIENTED_EDGE ( 'NONE', *, *, #227, .T. ) ;
#59 = ORIENTED_EDGE ( 'NONE', *, *, #236, .F. ) ;
#60 = ORIENTED_EDGE ( 'NONE', *, *, #216, .F. ) ;
#61 = ORIENTED_EDGE ( 'NONE', *, *, #236, .T. ) ;
#62 = ORIENTED_EDGE ( 'NONE', *, *, #203, .F. ) ;
#63 = ORIENTED_EDGE ( 'NONE', *, *, #235, .T. ) ;
#64 = ORIENTED_EDGE ( 'NONE', *, *, #204, .T. ) ;
#65 = CARTESIAN_POINT ( 'NONE',  ( -14.99999999999999800, 3.499999999999999100, 500.0000000000000000 ) ) ;
#66 = CARTESIAN_POINT ( 'NONE',  ( -14.99999999999999800, 3.499999999999999100, -500.0000000000000000 ) ) ;
#67 = CARTESIAN_POINT ( 'NONE',  ( -14.99999999999999800, -3.500000000000000900, -500.0000000000000000 ) ) ;
#68 = CARTESIAN_POINT ( 'NONE',  ( 15.00000000000000000, -3.500000000000000900, -500.0000000000000000 ) ) ;
#69 = CARTESIAN_POINT ( 'NONE',  ( 15.00000000000000000, 3.499999999999999100, -500.0000000000000000 ) ) ;
#70 = CARTESIAN_POINT ( 'NONE',  ( 15.00000000000000000, -3.500000000000000900, 500.0000000000000000 ) ) ;
#71 = CARTESIAN_POINT ( 'NONE',  ( -14.99999999999999800, -3.500000000000000900, 500.0000000000000000 ) ) ;
#72 = CARTESIAN_POINT ( 'NONE',  ( 15.00000000000000000, 3.499999999999999100, 500.0000000000000000 ) ) ;
#73 = PLANE ( 'NONE',  #9 ) ;
#74 = CARTESIAN_POINT ( 'NONE',  ( 0.0000000000000000000, 0.0000000000000000000, 500.0000000000000000 ) ) ;
#75 = DIRECTION ( 'NONE',  ( -0.0000000000000000000, 0.0000000000000000000, 1.000000000000000000 ) ) ;
#76 = DIRECTION ( 'NONE',  ( 1.000000000000000000, 0.0000000000000000000, 0.0000000000000000000 ) ) ;
#77 = LINE ( 'NONE', #78, #25 ) ;
#78 = CARTESIAN_POINT ( 'NONE',  ( -14.99999999999999800, 3.499999999999999100, 500.0000000000000000 ) ) ;
#79 = DIRECTION ( 'NONE',  ( -0.0000000000000000000, -0.0000000000000000000, -1.000000000000000000 ) ) ;
#80 = PLANE ( 'NONE',  #10 ) ;
#81 = LINE ( 'NONE', #82, #21 ) ;
#82 = CARTESIAN_POINT ( 'NONE',  ( 15.00000000000000000, 3.499999999999999100, 500.0000000000000000 ) ) ;
#83 = DIRECTION ( 'NONE',  ( -0.0000000000000000000, 1.000000000000000000, -0.0000000000000000000 ) ) ;
#84 = LINE ( 'NONE', #85, #6 ) ;
#85 = CARTESIAN_POINT ( 'NONE',  ( -14.99999999999999800, 3.499999999999999100, -500.0000000000000000 ) ) ;
#86 = DIRECTION ( 'NONE',  ( -1.000000000000000000, -0.0000000000000000000, -0.0000000000000000000 ) ) ;
#87 = CARTESIAN_POINT ( 'NONE',  ( -14.99999999999999800, 3.499999999999999100, 500.0000000000000000 ) ) ;
#88 = DIRECTION ( 'NONE',  ( 1.000000000000000000, 0.0000000000000000000, -0.0000000000000000000 ) ) ;
#89 = DIRECTION ( 'NONE',  ( -0.0000000000000000000, 0.0000000000000000000, -1.000000000000000000 ) ) ;
#90 = LINE ( 'NONE', #91, #7 ) ;
#91 = CARTESIAN_POINT ( 'NONE',  ( -14.99999999999999800, 3.499999999999999100, -500.0000000000000000 ) ) ;
#92 = DIRECTION ( 'NONE',  ( 0.0000000000000000000, -1.000000000000000000, 0.0000000000000000000 ) ) ;
#93 = PLANE ( 'NONE',  #4 ) ;
#94 = LINE ( 'NONE', #102, #14 ) ;
#95 = CARTESIAN_POINT ( 'NONE',  ( -14.99999999999999800, -3.500000000000000900, -500.0000000000000000 ) ) ;
#96 = CARTESIAN_POINT ( 'NONE',  ( 15.00000000000000000, 3.499999999999999100, -500.0000000000000000 ) ) ;
#97 = DIRECTION ( 'NONE',  ( -0.0000000000000000000, 1.000000000000000000, -0.0000000000000000000 ) ) ;
#98 = DIRECTION ( 'NONE',  ( 1.000000000000000000, 0.0000000000000000000, 0.0000000000000000000 ) ) ;
#99 = LINE ( 'NONE', #96, #22 ) ;
#100 = DIRECTION ( 'NONE',  ( -0.0000000000000000000, -0.0000000000000000000, -1.000000000000000000 ) ) ;
#101 = LINE ( 'NONE', #95, #8 ) ;
#102 = CARTESIAN_POINT ( 'NONE',  ( -14.99999999999999800, -3.500000000000000900, 500.0000000000000000 ) ) ;
#103 = CARTESIAN_POINT ( 'NONE',  ( 15.00000000000000000, 3.499999999999999100, 500.0000000000000000 ) ) ;
#104 = DIRECTION ( 'NONE',  ( 0.0000000000000000000, -0.0000000000000000000, 1.000000000000000000 ) ) ;
#105 = PLANE ( 'NONE',  #26 ) ;
#106 = DIRECTION ( 'NONE',  ( -0.0000000000000000000, 0.0000000000000000000, 1.000000000000000000 ) ) ;
#107 = DIRECTION ( 'NONE',  ( 0.0000000000000000000, 1.000000000000000000, 0.0000000000000000000 ) ) ;
#108 = LINE ( 'NONE', #103, #17 ) ;
#109 = DIRECTION ( 'NONE',  ( -0.0000000000000000000, -0.0000000000000000000, -1.000000000000000000 ) ) ;
#110 = CARTESIAN_POINT ( 'NONE',  ( -14.99999999999999800, -3.500000000000000900, 500.0000000000000000 ) ) ;
#111 = CARTESIAN_POINT ( 'NONE',  ( 0.0000000000000000000, 0.0000000000000000000, -500.0000000000000000 ) ) ;
#112 = LINE ( 'NONE', #114, #15 ) ;
#113 = DIRECTION ( 'NONE',  ( 1.000000000000000000, 0.0000000000000000000, 0.0000000000000000000 ) ) ;
#114 = CARTESIAN_POINT ( 'NONE',  ( -14.99999999999999800, -3.500000000000000900, 500.0000000000000000 ) ) ;
#115 = DIRECTION ( 'NONE',  ( 1.000000000000000000, 0.0000000000000000000, 0.0000000000000000000 ) ) ;
#116 = PLANE ( 'NONE',  #23 ) ;
#117 = LINE ( 'NONE', #118, #16 ) ;
#118 = CARTESIAN_POINT ( 'NONE',  ( 15.00000000000000000, -3.500000000000000900, 500.0000000000000000 ) ) ;
#119 = DIRECTION ( 'NONE',  ( -0.0000000000000000000, -0.0000000000000000000, -1.000000000000000000 ) ) ;
#120 = CARTESIAN_POINT ( 'NONE',  ( -14.99999999999999800, 3.499999999999999100, 500.0000000000000000 ) ) ;
#121 = DIRECTION ( 'NONE',  ( 0.0000000000000000000, -1.000000000000000000, 0.0000000000000000000 ) ) ;
#122 = DIRECTION ( 'NONE',  ( 0.0000000000000000000, -0.0000000000000000000, -1.000000000000000000 ) ) ;
#123 = PLANE ( 'NONE',  #24 ) ;
#124 = CARTESIAN_POINT ( 'NONE',  ( 15.00000000000000000, 3.499999999999999100, 500.0000000000000000 ) ) ;
#125 = DIRECTION ( 'NONE',  ( -1.000000000000000000, 0.0000000000000000000, 0.0000000000000000000 ) ) ;
#126 = DIRECTION ( 'NONE',  ( 0.0000000000000000000, 0.0000000000000000000, 1.000000000000000000 ) ) ;
#127 = LINE ( 'NONE', #128, #180 ) ;
#128 = CARTESIAN_POINT ( 'NONE',  ( -14.99999999999999800, 3.499999999999999100, 500.0000000000000000 ) ) ;
#129 = DIRECTION ( 'NONE',  ( 0.0000000000000000000, -1.000000000000000000, 0.0000000000000000000 ) ) ;
#130 = LINE ( 'NONE', #131, #193 ) ;
#131 = CARTESIAN_POINT ( 'NONE',  ( -14.99999999999999800, 3.499999999999999100, 500.0000000000000000 ) ) ;
#132 = DIRECTION ( 'NONE',  ( -1.000000000000000000, -0.0000000000000000000, -0.0000000000000000000 ) ) ;
#133 =( LENGTH_UNIT ( ) NAMED_UNIT ( * ) SI_UNIT ( .MILLI., .METRE. ) );
#134 =( NAMED_UNIT ( * ) PLANE_ANGLE_UNIT ( ) SI_UNIT ( $, .RADIAN. ) );
#135 =( NAMED_UNIT ( * ) SI_UNIT ( $, .STERADIAN. ) SOLID_ANGLE_UNIT ( ) );
#136 = APPLICATION_PROTOCOL_DEFINITION ( 'international standard', 'config_control_design', 1994, #173 ) ;
#137 = CARTESIAN_POINT ( 'NONE',  ( 0.0000000000000000000, 0.0000000000000000000, 0.0000000000000000000 ) ) ;
#138 = DIRECTION ( 'NONE',  ( 0.0000000000000000000, 0.0000000000000000000, 1.000000000000000000 ) ) ;
#139 = DIRECTION ( 'NONE',  ( 1.000000000000000000, 0.0000000000000000000, 0.0000000000000000000 ) ) ;
#140 = SHAPE_DEFINITION_REPRESENTATION ( #3, #201 ) ;
#141 = MECHANICAL_CONTEXT ( 'NONE', #173, 'mechanical' ) ;
#142 = PERSON_AND_ORGANIZATION ( #199, #175 ) ;
#143 = PERSON_AND_ORGANIZATION_ROLE ( 'design_owner' ) ;
#144 = APPLICATION_PROTOCOL_DEFINITION ( 'international standard', 'config_control_design', 1994, #174 ) ;
#145 = PERSON_AND_ORGANIZATION ( #199, #175 ) ;
#146 = APPROVAL_STATUS ( 'not_yet_approved' ) ;
#147 = APPROVAL_ROLE ( '' ) ;
#148 = DATE_AND_TIME ( #182, #233 ) ;
#149 = APPROVAL_DATE_TIME ( #148, #229 ) ;
#150 = PERSON_AND_ORGANIZATION ( #199, #175 ) ;
#151 = PERSON_AND_ORGANIZATION_ROLE ( 'creator' ) ;
#152 = DATE_AND_TIME ( #187, #234 ) ;
#153 = DATE_TIME_ROLE ( 'creation_date' ) ;
#154 = PERSON_AND_ORGANIZATION ( #199, #175 ) ;
#155 = APPROVAL_STATUS ( 'not_yet_approved' ) ;
#156 = APPROVAL_ROLE ( '' ) ;
#157 = DATE_AND_TIME ( #189, #215 ) ;
#158 = APPROVAL_DATE_TIME ( #157, #214 ) ;
#159 = PERSON_AND_ORGANIZATION ( #199, #175 ) ;
#160 = PERSON_AND_ORGANIZATION_ROLE ( 'creator' ) ;
#161 = PERSON_AND_ORGANIZATION ( #199, #175 ) ;
#162 = PERSON_AND_ORGANIZATION_ROLE ( 'design_supplier' ) ;
#163 = SECURITY_CLASSIFICATION_LEVEL ( 'unclassified' ) ;
#164 = PERSON_AND_ORGANIZATION ( #199, #175 ) ;
#165 = PERSON_AND_ORGANIZATION_ROLE ( 'classification_officer' ) ;
#166 = DATE_AND_TIME ( #178, #210 ) ;
#167 = DATE_TIME_ROLE ( 'classification_date' ) ;
#168 = PERSON_AND_ORGANIZATION ( #199, #175 ) ;
#169 = APPROVAL_STATUS ( 'not_yet_approved' ) ;
#170 = APPROVAL_ROLE ( '' ) ;
#171 = DATE_AND_TIME ( #185, #212 ) ;
#172 = APPROVAL_DATE_TIME ( #171, #208 ) ;
#173 = APPLICATION_CONTEXT ( 'configuration controlled 3d designs of mechanical parts and assemblies' ) ;
#174 = APPLICATION_CONTEXT ( 'configuration controlled 3d designs of mechanical parts and assemblies' ) ;
#175 = ORGANIZATION ( 'UNSPECIFIED', 'UNSPECIFIED', '' ) ;
#176 = PRODUCT_DEFINITION_FORMATION_WITH_SPECIFIED_SOURCE ( 'ANY', '', #198, .NOT_KNOWN. ) ;
#177 = APPROVAL_PERSON_ORGANIZATION ( #154, #214, #156 ) ;
#178 = CALENDAR_DATE ( 2015, 11, 8 ) ;
#179 = CC_DESIGN_SECURITY_CLASSIFICATION ( #192, ( #176 ) ) ;
#180 = VECTOR ( 'NONE', #129, 1000.000000000000000 ) ;
#181 = CC_DESIGN_APPROVAL ( #229, ( #228 ) ) ;
#182 = CALENDAR_DATE ( 2015, 11, 8 ) ;
#183 = COORDINATED_UNIVERSAL_TIME_OFFSET ( 9, 0, .AHEAD. ) ;
#184 = COORDINATED_UNIVERSAL_TIME_OFFSET ( 9, 0, .AHEAD. ) ;
#185 = CALENDAR_DATE ( 2015, 11, 8 ) ;
#186 = COORDINATED_UNIVERSAL_TIME_OFFSET ( 9, 0, .AHEAD. ) ;
#187 = CALENDAR_DATE ( 2015, 11, 8 ) ;
#188 = APPROVAL_PERSON_ORGANIZATION ( #168, #208, #170 ) ;
#189 = CALENDAR_DATE ( 2015, 11, 8 ) ;
#190 = APPROVAL_PERSON_ORGANIZATION ( #145, #229, #147 ) ;
#191 = COORDINATED_UNIVERSAL_TIME_OFFSET ( 9, 0, .AHEAD. ) ;
#192 = SECURITY_CLASSIFICATION ( '', '', #163 ) ;
#193 = VECTOR ( 'NONE', #132, 1000.000000000000000 ) ;
#194 = COORDINATED_UNIVERSAL_TIME_OFFSET ( 9, 0, .AHEAD. ) ;
#195 = AXIS2_PLACEMENT_3D ( 'NONE', #137, #138, #139 ) ;
#196 = CC_DESIGN_APPROVAL ( #208, ( #192 ) ) ;
#197 = CC_DESIGN_APPROVAL ( #214, ( #176 ) ) ;
#198 = PRODUCT ( 'sone3D', 'sone3D', '', ( #141 ) ) ;
#199 = PERSON ( 'UNSPECIFIED', 'UNSPECIFIED', 'UNSPECIFIED', ('UNSPECIFIED'), ('UNSPECIFIED'), ('UNSPECIFIED') ) ;
#200 = UNCERTAINTY_MEASURE_WITH_UNIT (LENGTH_MEASURE( 1.000000000000000100E-005 ), #133, 'distance_accuracy_value', 'NONE');
#201 = ADVANCED_BREP_SHAPE_REPRESENTATION ( 'sone3D', ( #2, #195 ), #237 ) ;
#202 = ADVANCED_FACE ( 'NONE', ( #18 ), #73, .T. ) ;
#203 = EDGE_CURVE ( 'NONE', #33, #34, #77, .T. ) ;
#204 = EDGE_CURVE ( 'NONE', #38, #40, #81, .T. ) ;
#205 = EDGE_CURVE ( 'NONE', #37, #34, #84, .T. ) ;
#206 = ADVANCED_FACE ( 'NONE', ( #12 ), #80, .F. ) ;
#207 = EDGE_CURVE ( 'NONE', #34, #35, #90, .T. ) ;
#208 = APPROVAL ( #169, 'UNSPECIFIED' ) ;
#209 = CC_DESIGN_DATE_AND_TIME_ASSIGNMENT ( #166, #167, ( #192 ) ) ;
#210 = LOCAL_TIME ( 19, 17, 20.00000000000000000, #184 ) ;
#211 = CC_DESIGN_PERSON_AND_ORGANIZATION_ASSIGNMENT ( #164, #165, ( #192 ) ) ;
#212 = LOCAL_TIME ( 19, 17, 20.00000000000000000, #191 ) ;
#213 = PRODUCT_RELATED_PRODUCT_CATEGORY ( 'detail', '', ( #198 ) ) ;
#214 = APPROVAL ( #155, 'UNSPECIFIED' ) ;
#215 = LOCAL_TIME ( 19, 17, 20.00000000000000000, #194 ) ;
#216 = EDGE_CURVE ( 'NONE', #39, #35, #94, .T. ) ;
#217 = CC_DESIGN_DATE_AND_TIME_ASSIGNMENT ( #152, #153, ( #228 ) ) ;
#218 = EDGE_CURVE ( 'NONE', #35, #36, #101, .T. ) ;
#219 = CC_DESIGN_PERSON_AND_ORGANIZATION_ASSIGNMENT ( #150, #151, ( #228 ) ) ;
#220 = CC_DESIGN_PERSON_AND_ORGANIZATION_ASSIGNMENT ( #159, #160, ( #176 ) ) ;
#221 = EDGE_CURVE ( 'NONE', #36, #37, #99, .T. ) ;
#222 = EDGE_CURVE ( 'NONE', #40, #37, #108, .T. ) ;
#223 = ADVANCED_FACE ( 'NONE', ( #13 ), #93, .F. ) ;
#224 = CC_DESIGN_PERSON_AND_ORGANIZATION_ASSIGNMENT ( #161, #162, ( #176 ) ) ;
#225 = ADVANCED_FACE ( 'NONE', ( #11 ), #105, .F. ) ;
#226 = CC_DESIGN_PERSON_AND_ORGANIZATION_ASSIGNMENT ( #142, #143, ( #198 ) ) ;
#227 = EDGE_CURVE ( 'NONE', #39, #38, #112, .T. ) ;
#228 = PRODUCT_DEFINITION ( 'UNKNOWN', '', #176, #1 ) ;
#229 = APPROVAL ( #146, 'UNSPECIFIED' ) ;
#230 = EDGE_CURVE ( 'NONE', #38, #36, #117, .T. ) ;
#231 = ADVANCED_FACE ( 'NONE', ( #19 ), #116, .F. ) ;
#232 = ADVANCED_FACE ( 'NONE', ( #20 ), #123, .F. ) ;
#233 = LOCAL_TIME ( 19, 17, 20.00000000000000000, #186 ) ;
#234 = LOCAL_TIME ( 19, 17, 20.00000000000000000, #183 ) ;
#235 = EDGE_CURVE ( 'NONE', #33, #39, #127, .T. ) ;
#236 = EDGE_CURVE ( 'NONE', #40, #33, #130, .T. ) ;
#237 =( GEOMETRIC_REPRESENTATION_CONTEXT ( 3 ) GLOBAL_UNCERTAINTY_ASSIGNED_CONTEXT ( ( #200 ) ) GLOBAL_UNIT_ASSIGNED_CONTEXT ( ( #133, #134, #135 ) ) REPRESENTATION_CONTEXT ( 'NONE', 'WORKASPACE' ) );
ENDSEC;
END-ISO-10303-21;
