ISO-10303-21;
HEADER;
FILE_DESCRIPTION (( 'STEP AP203' ),
    '1' );
FILE_NAME ('sone3D.STEP',
    '2015-08-11T10:17:00',
    ( '' ),
    ( '' ),
    'SwSTEP 2.0',
    'SolidWorks 2012',
    '' );
FILE_SCHEMA (( 'CONFIG_CONTROL_DESIGN' ));
ENDSEC;

DATA;
#1 = PRODUCT_DEFINITION_SHAPE ( 'NONE', 'NONE',  #214 ) ;
#2 = DESIGN_CONTEXT ( 'detailed design', #236, 'design' ) ;
#3 = MANIFOLD_SOLID_BREP ( 'ÎÞ½ - µoµ1', #12 ) ;
#4 = AXIS2_PLACEMENT_3D ( 'NONE', #136, #137, #138 ) ;
#5 = VECTOR ( 'NONE', #117, 1000.000000000000000 ) ;
#6 = FACE_OUTER_BOUND ( 'NONE', #45, .T. ) ;
#7 = VECTOR ( 'NONE', #122, 1000.000000000000000 ) ;
#8 = AXIS2_PLACEMENT_3D ( 'NONE', #89, #90, #91 ) ;
#9 = AXIS2_PLACEMENT_3D ( 'NONE', #100, #108, #106 ) ;
#10 = AXIS2_PLACEMENT_3D ( 'NONE', #123, #124, #125 ) ;
#11 = VECTOR ( 'NONE', #85, 1000.000000000000000 ) ;
#12 = CLOSED_SHELL ( 'NONE', ( #215, #234, #218, #217, #227, #212 ) ) ;
#13 = VECTOR ( 'NONE', #81, 1000.000000000000000 ) ;
#14 = FACE_OUTER_BOUND ( 'NONE', #41, .T. ) ;
#15 = AXIS2_PLACEMENT_3D ( 'NONE', #93, #94, #95 ) ;
#16 = VECTOR ( 'NONE', #132, 1000.000000000000000 ) ;
#17 = VECTOR ( 'NONE', #98, 1000.000000000000000 ) ;
#18 = FACE_OUTER_BOUND ( 'NONE', #42, .T. ) ;
#19 = VECTOR ( 'NONE', #114, 1000.000000000000000 ) ;
#20 = VECTOR ( 'NONE', #118, 1000.000000000000000 ) ;
#21 = VECTOR ( 'NONE', #88, 1000.000000000000000 ) ;
#22 = VECTOR ( 'NONE', #113, 1000.000000000000000 ) ;
#23 = FACE_OUTER_BOUND ( 'NONE', #44, .T. ) ;
#24 = AXIS2_PLACEMENT_3D ( 'NONE', #101, #104, #105 ) ;
#25 = COORDINATED_UNIVERSAL_TIME_OFFSET ( 9, 0, .AHEAD. ) ;
#26 = FACE_OUTER_BOUND ( 'NONE', #43, .T. ) ;
#27 = FACE_OUTER_BOUND ( 'NONE', #46, .T. ) ;
#28 = VECTOR ( 'NONE', #128, 1000.000000000000000 ) ;
#29 = APPROVAL_PERSON_ORGANIZATION ( #151, #222, #153 ) ;
#30 = ORGANIZATION ( 'UNSPECIFIED', 'UNSPECIFIED', '' ) ;
#31 = VECTOR ( 'NONE', #135, 1000.000000000000000 ) ;
#32 = AXIS2_PLACEMENT_3D ( 'NONE', #143, #144, #145 ) ;
#33 = VERTEX_POINT ( 'NONE', #71 ) ;
#34 = VERTEX_POINT ( 'NONE', #72 ) ;
#35 = VERTEX_POINT ( 'NONE', #73 ) ;
#36 = VERTEX_POINT ( 'NONE', #74 ) ;
#37 = VERTEX_POINT ( 'NONE', #75 ) ;
#38 = VERTEX_POINT ( 'NONE', #76 ) ;
#39 = VERTEX_POINT ( 'NONE', #77 ) ;
#40 = VERTEX_POINT ( 'NONE', #78 ) ;
#41 = EDGE_LOOP ( 'NONE', ( #69, #64, #70, #47 ) ) ;
#42 = EDGE_LOOP ( 'NONE', ( #68, #65, #61, #63 ) ) ;
#43 = EDGE_LOOP ( 'NONE', ( #60, #66, #54, #67 ) ) ;
#44 = EDGE_LOOP ( 'NONE', ( #58, #55, #62, #59 ) ) ;
#45 = EDGE_LOOP ( 'NONE', ( #52, #50, #49, #48 ) ) ;
#46 = EDGE_LOOP ( 'NONE', ( #51, #56, #57, #53 ) ) ;
#47 = ORIENTED_EDGE ( 'NONE', *, *, #219, .F. ) ;
#48 = ORIENTED_EDGE ( 'NONE', *, *, #226, .T. ) ;
#49 = ORIENTED_EDGE ( 'NONE', *, *, #209, .F. ) ;
#50 = ORIENTED_EDGE ( 'NONE', *, *, #220, .F. ) ;
#51 = ORIENTED_EDGE ( 'NONE', *, *, #219, .T. ) ;
#52 = ORIENTED_EDGE ( 'NONE', *, *, #223, .T. ) ;
#53 = ORIENTED_EDGE ( 'NONE', *, *, #216, .T. ) ;
#54 = ORIENTED_EDGE ( 'NONE', *, *, #229, .F. ) ;
#55 = ORIENTED_EDGE ( 'NONE', *, *, #216, .F. ) ;
#56 = ORIENTED_EDGE ( 'NONE', *, *, #226, .F. ) ;
#57 = ORIENTED_EDGE ( 'NONE', *, *, #231, .F. ) ;
#58 = ORIENTED_EDGE ( 'NONE', *, *, #225, .T. ) ;
#59 = ORIENTED_EDGE ( 'NONE', *, *, #208, .T. ) ;
#60 = ORIENTED_EDGE ( 'NONE', *, *, #210, .T. ) ;
#61 = ORIENTED_EDGE ( 'NONE', *, *, #209, .T. ) ;
#62 = ORIENTED_EDGE ( 'NONE', *, *, #228, .F. ) ;
#63 = ORIENTED_EDGE ( 'NONE', *, *, #229, .T. ) ;
#64 = ORIENTED_EDGE ( 'NONE', *, *, #210, .F. ) ;
#65 = ORIENTED_EDGE ( 'NONE', *, *, #231, .T. ) ;
#66 = ORIENTED_EDGE ( 'NONE', *, *, #208, .F. ) ;
#67 = ORIENTED_EDGE ( 'NONE', *, *, #220, .T. ) ;
#68 = ORIENTED_EDGE ( 'NONE', *, *, #228, .T. ) ;
#69 = ORIENTED_EDGE ( 'NONE', *, *, #225, .F. ) ;
#70 = ORIENTED_EDGE ( 'NONE', *, *, #223, .F. ) ;
#71 = CARTESIAN_POINT ( 'NONE',  ( 12.49999999999999800, -3.500000000000000400, -500.0000000000000000 ) ) ;
#72 = CARTESIAN_POINT ( 'NONE',  ( -12.50000000000000200, -3.500000000000000400, 500.0000000000000000 ) ) ;
#73 = CARTESIAN_POINT ( 'NONE',  ( -12.50000000000000200, -3.500000000000000400, -500.0000000000000000 ) ) ;
#74 = CARTESIAN_POINT ( 'NONE',  ( -12.50000000000000200, 3.499999999999999600, 500.0000000000000000 ) ) ;
#75 = CARTESIAN_POINT ( 'NONE',  ( 12.49999999999999800, -3.500000000000000400, 500.0000000000000000 ) ) ;
#76 = CARTESIAN_POINT ( 'NONE',  ( 12.49999999999999800, 3.499999999999999600, 500.0000000000000000 ) ) ;
#77 = CARTESIAN_POINT ( 'NONE',  ( 12.49999999999999800, 3.499999999999999600, -500.0000000000000000 ) ) ;
#78 = CARTESIAN_POINT ( 'NONE',  ( -12.50000000000000200, 3.499999999999999600, -500.0000000000000000 ) ) ;
#79 = LINE ( 'NONE', #80, #13 ) ;
#80 = CARTESIAN_POINT ( 'NONE',  ( -12.50000000000000200, 3.499999999999999600, 500.0000000000000000 ) ) ;
#81 = DIRECTION ( 'NONE',  ( -0.0000000000000000000, -0.0000000000000000000, -1.000000000000000000 ) ) ;
#82 = PLANE ( 'NONE',  #8 ) ;
#83 = LINE ( 'NONE', #84, #11 ) ;
#84 = CARTESIAN_POINT ( 'NONE',  ( 12.49999999999999800, 3.499999999999999600, 500.0000000000000000 ) ) ;
#85 = DIRECTION ( 'NONE',  ( -0.0000000000000000000, 1.000000000000000000, -0.0000000000000000000 ) ) ;
#86 = LINE ( 'NONE', #87, #21 ) ;
#87 = CARTESIAN_POINT ( 'NONE',  ( -12.50000000000000200, 3.499999999999999600, -500.0000000000000000 ) ) ;
#88 = DIRECTION ( 'NONE',  ( -1.000000000000000000, -0.0000000000000000000, -0.0000000000000000000 ) ) ;
#89 = CARTESIAN_POINT ( 'NONE',  ( 0.0000000000000000000, 0.0000000000000000000, -500.0000000000000000 ) ) ;
#90 = DIRECTION ( 'NONE',  ( -0.0000000000000000000, 0.0000000000000000000, 1.000000000000000000 ) ) ;
#91 = DIRECTION ( 'NONE',  ( 1.000000000000000000, 0.0000000000000000000, 0.0000000000000000000 ) ) ;
#92 = PLANE ( 'NONE',  #15 ) ;
#93 = CARTESIAN_POINT ( 'NONE',  ( -12.50000000000000200, 3.499999999999999600, 500.0000000000000000 ) ) ;
#94 = DIRECTION ( 'NONE',  ( 1.000000000000000000, 0.0000000000000000000, -0.0000000000000000000 ) ) ;
#95 = DIRECTION ( 'NONE',  ( -0.0000000000000000000, 0.0000000000000000000, -1.000000000000000000 ) ) ;
#96 = LINE ( 'NONE', #97, #17 ) ;
#97 = CARTESIAN_POINT ( 'NONE',  ( -12.50000000000000200, -3.500000000000000400, 500.0000000000000000 ) ) ;
#98 = DIRECTION ( 'NONE',  ( -0.0000000000000000000, -0.0000000000000000000, -1.000000000000000000 ) ) ;
#99 = PLANE ( 'NONE',  #9 ) ;
#100 = CARTESIAN_POINT ( 'NONE',  ( -12.50000000000000200, 3.499999999999999600, 500.0000000000000000 ) ) ;
#101 = CARTESIAN_POINT ( 'NONE',  ( 12.49999999999999800, 3.499999999999999600, 500.0000000000000000 ) ) ;
#102 = LINE ( 'NONE', #103, #19 ) ;
#103 = CARTESIAN_POINT ( 'NONE',  ( -12.50000000000000200, -3.500000000000000400, -500.0000000000000000 ) ) ;
#104 = DIRECTION ( 'NONE',  ( -1.000000000000000000, 0.0000000000000000000, 0.0000000000000000000 ) ) ;
#105 = DIRECTION ( 'NONE',  ( 0.0000000000000000000, 0.0000000000000000000, 1.000000000000000000 ) ) ;
#106 = DIRECTION ( 'NONE',  ( 0.0000000000000000000, -0.0000000000000000000, -1.000000000000000000 ) ) ;
#107 = PLANE ( 'NONE',  #24 ) ;
#108 = DIRECTION ( 'NONE',  ( 0.0000000000000000000, -1.000000000000000000, 0.0000000000000000000 ) ) ;
#109 = CARTESIAN_POINT ( 'NONE',  ( 12.49999999999999800, 3.499999999999999600, -500.0000000000000000 ) ) ;
#110 = PLANE ( 'NONE',  #10 ) ;
#111 = LINE ( 'NONE', #109, #5 ) ;
#112 = LINE ( 'NONE', #119, #20 ) ;
#113 = DIRECTION ( 'NONE',  ( -0.0000000000000000000, -0.0000000000000000000, -1.000000000000000000 ) ) ;
#114 = DIRECTION ( 'NONE',  ( 1.000000000000000000, 0.0000000000000000000, 0.0000000000000000000 ) ) ;
#115 = LINE ( 'NONE', #116, #22 ) ;
#116 = CARTESIAN_POINT ( 'NONE',  ( 12.49999999999999800, 3.499999999999999600, 500.0000000000000000 ) ) ;
#117 = DIRECTION ( 'NONE',  ( -0.0000000000000000000, 1.000000000000000000, -0.0000000000000000000 ) ) ;
#118 = DIRECTION ( 'NONE',  ( 0.0000000000000000000, -1.000000000000000000, 0.0000000000000000000 ) ) ;
#119 = CARTESIAN_POINT ( 'NONE',  ( -12.50000000000000200, 3.499999999999999600, -500.0000000000000000 ) ) ;
#120 = LINE ( 'NONE', #121, #7 ) ;
#121 = CARTESIAN_POINT ( 'NONE',  ( 12.49999999999999800, -3.500000000000000400, 500.0000000000000000 ) ) ;
#122 = DIRECTION ( 'NONE',  ( -0.0000000000000000000, -0.0000000000000000000, -1.000000000000000000 ) ) ;
#123 = CARTESIAN_POINT ( 'NONE',  ( 0.0000000000000000000, 0.0000000000000000000, 500.0000000000000000 ) ) ;
#124 = DIRECTION ( 'NONE',  ( -0.0000000000000000000, 0.0000000000000000000, 1.000000000000000000 ) ) ;
#125 = DIRECTION ( 'NONE',  ( 1.000000000000000000, 0.0000000000000000000, 0.0000000000000000000 ) ) ;
#126 = LINE ( 'NONE', #127, #28 ) ;
#127 = CARTESIAN_POINT ( 'NONE',  ( -12.50000000000000200, 3.499999999999999600, 500.0000000000000000 ) ) ;
#128 = DIRECTION ( 'NONE',  ( 0.0000000000000000000, -1.000000000000000000, 0.0000000000000000000 ) ) ;
#129 = PLANE ( 'NONE',  #4 ) ;
#130 = LINE ( 'NONE', #131, #16 ) ;
#131 = CARTESIAN_POINT ( 'NONE',  ( -12.50000000000000200, 3.499999999999999600, 500.0000000000000000 ) ) ;
#132 = DIRECTION ( 'NONE',  ( -1.000000000000000000, -0.0000000000000000000, -0.0000000000000000000 ) ) ;
#133 = LINE ( 'NONE', #134, #31 ) ;
#134 = CARTESIAN_POINT ( 'NONE',  ( -12.50000000000000200, -3.500000000000000400, 500.0000000000000000 ) ) ;
#135 = DIRECTION ( 'NONE',  ( 1.000000000000000000, 0.0000000000000000000, 0.0000000000000000000 ) ) ;
#136 = CARTESIAN_POINT ( 'NONE',  ( -12.50000000000000200, -3.500000000000000400, 500.0000000000000000 ) ) ;
#137 = DIRECTION ( 'NONE',  ( 0.0000000000000000000, 1.000000000000000000, 0.0000000000000000000 ) ) ;
#138 = DIRECTION ( 'NONE',  ( 0.0000000000000000000, -0.0000000000000000000, 1.000000000000000000 ) ) ;
#139 =( LENGTH_UNIT ( ) NAMED_UNIT ( * ) SI_UNIT ( .MILLI., .METRE. ) );
#140 =( NAMED_UNIT ( * ) PLANE_ANGLE_UNIT ( ) SI_UNIT ( $, .RADIAN. ) );
#141 =( NAMED_UNIT ( * ) SI_UNIT ( $, .STERADIAN. ) SOLID_ANGLE_UNIT ( ) );
#142 = APPLICATION_PROTOCOL_DEFINITION ( 'international standard', 'config_control_design', 1994, #237 ) ;
#143 = CARTESIAN_POINT ( 'NONE',  ( 0.0000000000000000000, 0.0000000000000000000, 0.0000000000000000000 ) ) ;
#144 = DIRECTION ( 'NONE',  ( 0.0000000000000000000, 0.0000000000000000000, 1.000000000000000000 ) ) ;
#145 = DIRECTION ( 'NONE',  ( 1.000000000000000000, 0.0000000000000000000, 0.0000000000000000000 ) ) ;
#146 = SHAPE_DEFINITION_REPRESENTATION ( #1, #199 ) ;
#147 = MECHANICAL_CONTEXT ( 'NONE', #237, 'mechanical' ) ;
#148 = PERSON_AND_ORGANIZATION ( #198, #30 ) ;
#149 = PERSON_AND_ORGANIZATION_ROLE ( 'design_owner' ) ;
#150 = APPLICATION_PROTOCOL_DEFINITION ( 'international standard', 'config_control_design', 1994, #236 ) ;
#151 = PERSON_AND_ORGANIZATION ( #198, #30 ) ;
#152 = APPROVAL_STATUS ( 'not_yet_approved' ) ;
#153 = APPROVAL_ROLE ( '' ) ;
#154 = DATE_AND_TIME ( #189, #230 ) ;
#155 = APPROVAL_DATE_TIME ( #154, #222 ) ;
#156 = PERSON_AND_ORGANIZATION ( #198, #30 ) ;
#157 = PERSON_AND_ORGANIZATION_ROLE ( 'creator' ) ;
#158 = DATE_AND_TIME ( #195, #233 ) ;
#159 = DATE_TIME_ROLE ( 'creation_date' ) ;
#160 = PERSON_AND_ORGANIZATION ( #198, #30 ) ;
#161 = APPROVAL_STATUS ( 'not_yet_approved' ) ;
#162 = APPROVAL_ROLE ( '' ) ;
#163 = DATE_AND_TIME ( #190, #207 ) ;
#164 = APPROVAL_DATE_TIME ( #163, #206 ) ;
#165 = PERSON_AND_ORGANIZATION ( #198, #30 ) ;
#166 = PERSON_AND_ORGANIZATION_ROLE ( 'creator' ) ;
#167 = PERSON_AND_ORGANIZATION ( #198, #30 ) ;
#168 = PERSON_AND_ORGANIZATION_ROLE ( 'design_supplier' ) ;
#169 = SECURITY_CLASSIFICATION_LEVEL ( 'unclassified' ) ;
#170 = PERSON_AND_ORGANIZATION ( #198, #30 ) ;
#171 = PERSON_AND_ORGANIZATION_ROLE ( 'classification_officer' ) ;
#172 = DATE_AND_TIME ( #194, #201 ) ;
#173 = DATE_TIME_ROLE ( 'classification_date' ) ;
#174 = PERSON_AND_ORGANIZATION ( #198, #30 ) ;
#175 = APPROVAL_STATUS ( 'not_yet_approved' ) ;
#176 = APPROVAL_ROLE ( '' ) ;
#177 = DATE_AND_TIME ( #191, #200 ) ;
#178 = APPROVAL_DATE_TIME ( #177, #203 ) ;
#179 = CC_DESIGN_APPROVAL ( #206, ( #182 ) ) ;
#180 = COORDINATED_UNIVERSAL_TIME_OFFSET ( 9, 0, .AHEAD. ) ;
#181 = APPROVAL_PERSON_ORGANIZATION ( #160, #206, #162 ) ;
#182 = PRODUCT_DEFINITION_FORMATION_WITH_SPECIFIED_SOURCE ( 'ANY', '', #196, .NOT_KNOWN. ) ;
#183 = CC_DESIGN_APPROVAL ( #203, ( #185 ) ) ;
#184 = COORDINATED_UNIVERSAL_TIME_OFFSET ( 9, 0, .AHEAD. ) ;
#185 = SECURITY_CLASSIFICATION ( '', '', #169 ) ;
#186 = CC_DESIGN_APPROVAL ( #222, ( #214 ) ) ;
#187 = COORDINATED_UNIVERSAL_TIME_OFFSET ( 9, 0, .AHEAD. ) ;
#188 = COORDINATED_UNIVERSAL_TIME_OFFSET ( 9, 0, .AHEAD. ) ;
#189 = CALENDAR_DATE ( 2015, 11, 8 ) ;
#190 = CALENDAR_DATE ( 2015, 11, 8 ) ;
#191 = CALENDAR_DATE ( 2015, 11, 8 ) ;
#192 = APPROVAL_PERSON_ORGANIZATION ( #174, #203, #176 ) ;
#193 = CC_DESIGN_SECURITY_CLASSIFICATION ( #185, ( #182 ) ) ;
#194 = CALENDAR_DATE ( 2015, 11, 8 ) ;
#195 = CALENDAR_DATE ( 2015, 11, 8 ) ;
#196 = PRODUCT ( 'sone3D', 'sone3D', '', ( #147 ) ) ;
#197 = UNCERTAINTY_MEASURE_WITH_UNIT (LENGTH_MEASURE( 1.000000000000000100E-005 ), #139, 'distance_accuracy_value', 'NONE');
#198 = PERSON ( 'UNSPECIFIED', 'UNSPECIFIED', 'UNSPECIFIED', ('UNSPECIFIED'), ('UNSPECIFIED'), ('UNSPECIFIED') ) ;
#199 = ADVANCED_BREP_SHAPE_REPRESENTATION ( 'sone3D', ( #3, #32 ), #235 ) ;
#200 = LOCAL_TIME ( 19, 17, 0.0000000000000000000, #184 ) ;
#201 = LOCAL_TIME ( 19, 17, 0.0000000000000000000, #188 ) ;
#202 = CC_DESIGN_PERSON_AND_ORGANIZATION_ASSIGNMENT ( #170, #171, ( #185 ) ) ;
#203 = APPROVAL ( #175, 'UNSPECIFIED' ) ;
#204 = CC_DESIGN_DATE_AND_TIME_ASSIGNMENT ( #172, #173, ( #185 ) ) ;
#205 = PRODUCT_RELATED_PRODUCT_CATEGORY ( 'detail', '', ( #196 ) ) ;
#206 = APPROVAL ( #161, 'UNSPECIFIED' ) ;
#207 = LOCAL_TIME ( 19, 17, 0.0000000000000000000, #180 ) ;
#208 = EDGE_CURVE ( 'NONE', #36, #40, #79, .T. ) ;
#209 = EDGE_CURVE ( 'NONE', #37, #38, #83, .T. ) ;
#210 = EDGE_CURVE ( 'NONE', #39, #40, #86, .T. ) ;
#211 = CC_DESIGN_DATE_AND_TIME_ASSIGNMENT ( #158, #159, ( #214 ) ) ;
#212 = ADVANCED_FACE ( 'NONE', ( #14 ), #82, .F. ) ;
#213 = CC_DESIGN_PERSON_AND_ORGANIZATION_ASSIGNMENT ( #165, #166, ( #182 ) ) ;
#214 = PRODUCT_DEFINITION ( 'UNKNOWN', '', #182, #2 ) ;
#215 = ADVANCED_FACE ( 'NONE', ( #23 ), #92, .F. ) ;
#216 = EDGE_CURVE ( 'NONE', #34, #35, #96, .T. ) ;
#217 = ADVANCED_FACE ( 'NONE', ( #26 ), #99, .F. ) ;
#218 = ADVANCED_FACE ( 'NONE', ( #6 ), #107, .F. ) ;
#219 = EDGE_CURVE ( 'NONE', #35, #33, #102, .T. ) ;
#220 = EDGE_CURVE ( 'NONE', #38, #39, #115, .T. ) ;
#221 = CC_DESIGN_PERSON_AND_ORGANIZATION_ASSIGNMENT ( #148, #149, ( #196 ) ) ;
#222 = APPROVAL ( #152, 'UNSPECIFIED' ) ;
#223 = EDGE_CURVE ( 'NONE', #33, #39, #111, .T. ) ;
#224 = CC_DESIGN_PERSON_AND_ORGANIZATION_ASSIGNMENT ( #156, #157, ( #214 ) ) ;
#225 = EDGE_CURVE ( 'NONE', #40, #35, #112, .T. ) ;
#226 = EDGE_CURVE ( 'NONE', #37, #33, #120, .T. ) ;
#227 = ADVANCED_FACE ( 'NONE', ( #18 ), #110, .T. ) ;
#228 = EDGE_CURVE ( 'NONE', #36, #34, #126, .T. ) ;
#229 = EDGE_CURVE ( 'NONE', #38, #36, #130, .T. ) ;
#230 = LOCAL_TIME ( 19, 17, 0.0000000000000000000, #25 ) ;
#231 = EDGE_CURVE ( 'NONE', #34, #37, #133, .T. ) ;
#232 = CC_DESIGN_PERSON_AND_ORGANIZATION_ASSIGNMENT ( #167, #168, ( #182 ) ) ;
#233 = LOCAL_TIME ( 19, 17, 0.0000000000000000000, #187 ) ;
#234 = ADVANCED_FACE ( 'NONE', ( #27 ), #129, .F. ) ;
#235 =( GEOMETRIC_REPRESENTATION_CONTEXT ( 3 ) GLOBAL_UNCERTAINTY_ASSIGNED_CONTEXT ( ( #197 ) ) GLOBAL_UNIT_ASSIGNED_CONTEXT ( ( #139, #140, #141 ) ) REPRESENTATION_CONTEXT ( 'NONE', 'WORKASPACE' ) );
#236 = APPLICATION_CONTEXT ( 'configuration controlled 3d designs of mechanical parts and assemblies' ) ;
#237 = APPLICATION_CONTEXT ( 'configuration controlled 3d designs of mechanical parts and assemblies' ) ;
ENDSEC;
END-ISO-10303-21;
