ISO-10303-21;
HEADER;
FILE_DESCRIPTION (( 'STEP AP203' ),
    '1' );
FILE_NAME ('sone3D.STEP',
    '2015-08-11T10:16:43',
    ( '' ),
    ( '' ),
    'SwSTEP 2.0',
    'SolidWorks 2012',
    '' );
FILE_SCHEMA (( 'CONFIG_CONTROL_DESIGN' ));
ENDSEC;

DATA;
#1 = VECTOR ( 'NONE', #112, 1000.000000000000000 ) ;
#2 = AXIS2_PLACEMENT_3D ( 'NONE', #115, #116, #113 ) ;
#3 = VECTOR ( 'NONE', #99, 1000.000000000000000 ) ;
#4 = VECTOR ( 'NONE', #92, 1000.000000000000000 ) ;
#5 = FACE_OUTER_BOUND ( 'NONE', #49, .T. ) ;
#6 = AXIS2_PLACEMENT_3D ( 'NONE', #147, #148, #149 ) ;
#7 = VECTOR ( 'NONE', #96, 1000.000000000000000 ) ;
#8 = AXIS2_PLACEMENT_3D ( 'NONE', #133, #134, #135 ) ;
#9 = CLOSED_SHELL ( 'NONE', ( #212, #214, #224, #230, #206, #232 ) ) ;
#10 = COORDINATED_UNIVERSAL_TIME_OFFSET ( 9, 0, .AHEAD. ) ;
#11 = AXIS2_PLACEMENT_3D ( 'NONE', #124, #127, #128 ) ;
#12 = CC_DESIGN_APPROVAL ( #211, ( #223 ) ) ;
#13 = FACE_OUTER_BOUND ( 'NONE', #45, .T. ) ;
#14 = VECTOR ( 'NONE', #125, 1000.000000000000000 ) ;
#15 = FACE_OUTER_BOUND ( 'NONE', #46, .T. ) ;
#16 = VECTOR ( 'NONE', #105, 1000.000000000000000 ) ;
#17 = VECTOR ( 'NONE', #120, 1000.000000000000000 ) ;
#18 = FACE_OUTER_BOUND ( 'NONE', #44, .T. ) ;
#19 = VECTOR ( 'NONE', #138, 1000.000000000000000 ) ;
#20 = VECTOR ( 'NONE', #142, 1000.000000000000000 ) ;
#21 = VECTOR ( 'NONE', #132, 1000.000000000000000 ) ;
#22 = SECURITY_CLASSIFICATION ( '', '', #180 ) ;
#23 = FACE_OUTER_BOUND ( 'NONE', #47, .T. ) ;
#24 = PRODUCT_DEFINITION_FORMATION_WITH_SPECIFIED_SOURCE ( 'ANY', '', #234, .NOT_KNOWN. ) ;
#25 = CALENDAR_DATE ( 2015, 11, 8 ) ;
#26 = CALENDAR_DATE ( 2015, 11, 8 ) ;
#27 = ORGANIZATION ( 'UNSPECIFIED', 'UNSPECIFIED', '' ) ;
#28 = VECTOR ( 'NONE', #111, 1000.000000000000000 ) ;
#29 = COORDINATED_UNIVERSAL_TIME_OFFSET ( 9, 0, .AHEAD. ) ;
#30 = VECTOR ( 'NONE', #102, 1000.000000000000000 ) ;
#31 = APPROVAL_PERSON_ORGANIZATION ( #171, #203, #173 ) ;
#32 = APPROVAL_PERSON_ORGANIZATION ( #162, #211, #164 ) ;
#33 = COORDINATED_UNIVERSAL_TIME_OFFSET ( 9, 0, .AHEAD. ) ;
#34 = COORDINATED_UNIVERSAL_TIME_OFFSET ( 9, 0, .AHEAD. ) ;
#35 = FACE_OUTER_BOUND ( 'NONE', #48, .T. ) ;
#36 = AXIS2_PLACEMENT_3D ( 'NONE', #143, #144, #145 ) ;
#37 = CALENDAR_DATE ( 2015, 11, 8 ) ;
#38 = CALENDAR_DATE ( 2015, 11, 8 ) ;
#39 = COORDINATED_UNIVERSAL_TIME_OFFSET ( 9, 0, .AHEAD. ) ;
#40 = AXIS2_PLACEMENT_3D ( 'NONE', #106, #107, #108 ) ;
#41 = APPROVAL_PERSON_ORGANIZATION ( #185, #217, #187 ) ;
#42 = CC_DESIGN_APPROVAL ( #203, ( #24 ) ) ;
#43 = AXIS2_PLACEMENT_3D ( 'NONE', #154, #155, #156 ) ;
#44 = EDGE_LOOP ( 'NONE', ( #56, #53, #60, #61 ) ) ;
#45 = EDGE_LOOP ( 'NONE', ( #66, #67, #50, #68 ) ) ;
#46 = EDGE_LOOP ( 'NONE', ( #51, #55, #69, #58 ) ) ;
#47 = EDGE_LOOP ( 'NONE', ( #71, #73, #72, #70 ) ) ;
#48 = EDGE_LOOP ( 'NONE', ( #62, #57, #54, #52 ) ) ;
#49 = EDGE_LOOP ( 'NONE', ( #59, #64, #65, #63 ) ) ;
#50 = ORIENTED_EDGE ( 'NONE', *, *, #201, .T. ) ;
#51 = ORIENTED_EDGE ( 'NONE', *, *, #213, .T. ) ;
#52 = ORIENTED_EDGE ( 'NONE', *, *, #208, .T. ) ;
#53 = ORIENTED_EDGE ( 'NONE', *, *, #213, .F. ) ;
#54 = ORIENTED_EDGE ( 'NONE', *, *, #201, .F. ) ;
#55 = ORIENTED_EDGE ( 'NONE', *, *, #216, .F. ) ;
#56 = ORIENTED_EDGE ( 'NONE', *, *, #215, .F. ) ;
#57 = ORIENTED_EDGE ( 'NONE', *, *, #227, .F. ) ;
#58 = ORIENTED_EDGE ( 'NONE', *, *, #227, .T. ) ;
#59 = ORIENTED_EDGE ( 'NONE', *, *, #210, .T. ) ;
#60 = ORIENTED_EDGE ( 'NONE', *, *, #202, .F. ) ;
#61 = ORIENTED_EDGE ( 'NONE', *, *, #210, .F. ) ;
#62 = ORIENTED_EDGE ( 'NONE', *, *, #202, .T. ) ;
#63 = ORIENTED_EDGE ( 'NONE', *, *, #226, .T. ) ;
#64 = ORIENTED_EDGE ( 'NONE', *, *, #208, .F. ) ;
#65 = ORIENTED_EDGE ( 'NONE', *, *, #198, .F. ) ;
#66 = ORIENTED_EDGE ( 'NONE', *, *, #199, .T. ) ;
#67 = ORIENTED_EDGE ( 'NONE', *, *, #198, .T. ) ;
#68 = ORIENTED_EDGE ( 'NONE', *, *, #200, .T. ) ;
#69 = ORIENTED_EDGE ( 'NONE', *, *, #200, .F. ) ;
#70 = ORIENTED_EDGE ( 'NONE', *, *, #216, .T. ) ;
#71 = ORIENTED_EDGE ( 'NONE', *, *, #215, .T. ) ;
#72 = ORIENTED_EDGE ( 'NONE', *, *, #199, .F. ) ;
#73 = ORIENTED_EDGE ( 'NONE', *, *, #226, .F. ) ;
#74 = VERTEX_POINT ( 'NONE', #82 ) ;
#75 = VERTEX_POINT ( 'NONE', #83 ) ;
#76 = VERTEX_POINT ( 'NONE', #84 ) ;
#77 = VERTEX_POINT ( 'NONE', #85 ) ;
#78 = VERTEX_POINT ( 'NONE', #86 ) ;
#79 = VERTEX_POINT ( 'NONE', #87 ) ;
#80 = VERTEX_POINT ( 'NONE', #88 ) ;
#81 = VERTEX_POINT ( 'NONE', #89 ) ;
#82 = CARTESIAN_POINT ( 'NONE',  ( 9.999999999999998200, 3.499999999999999100, 500.0000000000000000 ) ) ;
#83 = CARTESIAN_POINT ( 'NONE',  ( 10.00000000000000200, -3.500000000000000900, 500.0000000000000000 ) ) ;
#84 = CARTESIAN_POINT ( 'NONE',  ( -10.00000000000000200, 3.499999999999999100, -500.0000000000000000 ) ) ;
#85 = CARTESIAN_POINT ( 'NONE',  ( 9.999999999999998200, 3.499999999999999100, -500.0000000000000000 ) ) ;
#86 = CARTESIAN_POINT ( 'NONE',  ( 10.00000000000000200, -3.500000000000000900, -500.0000000000000000 ) ) ;
#87 = CARTESIAN_POINT ( 'NONE',  ( -10.00000000000000200, -3.500000000000000900, -500.0000000000000000 ) ) ;
#88 = CARTESIAN_POINT ( 'NONE',  ( -10.00000000000000200, -3.500000000000000900, 500.0000000000000000 ) ) ;
#89 = CARTESIAN_POINT ( 'NONE',  ( -10.00000000000000200, 3.499999999999999100, 500.0000000000000000 ) ) ;
#90 = LINE ( 'NONE', #91, #4 ) ;
#91 = CARTESIAN_POINT ( 'NONE',  ( -10.00000000000000200, -3.500000000000000900, 500.0000000000000000 ) ) ;
#92 = DIRECTION ( 'NONE',  ( 1.000000000000000000, 0.0000000000000000000, 0.0000000000000000000 ) ) ;
#93 = PLANE ( 'NONE',  #40 ) ;
#94 = LINE ( 'NONE', #95, #7 ) ;
#95 = CARTESIAN_POINT ( 'NONE',  ( -10.00000000000000200, 3.499999999999999100, 500.0000000000000000 ) ) ;
#96 = DIRECTION ( 'NONE',  ( 0.0000000000000000000, -1.000000000000000000, 0.0000000000000000000 ) ) ;
#97 = LINE ( 'NONE', #98, #3 ) ;
#98 = CARTESIAN_POINT ( 'NONE',  ( -10.00000000000000200, 3.499999999999999100, 500.0000000000000000 ) ) ;
#99 = DIRECTION ( 'NONE',  ( -1.000000000000000000, -0.0000000000000000000, -0.0000000000000000000 ) ) ;
#100 = LINE ( 'NONE', #101, #30 ) ;
#101 = CARTESIAN_POINT ( 'NONE',  ( 9.999999999999998200, 3.499999999999999100, 500.0000000000000000 ) ) ;
#102 = DIRECTION ( 'NONE',  ( -4.956352788505163300E-016, 1.000000000000000000, -0.0000000000000000000 ) ) ;
#103 = LINE ( 'NONE', #104, #16 ) ;
#104 = CARTESIAN_POINT ( 'NONE',  ( 9.999999999999998200, 3.499999999999999100, -500.0000000000000000 ) ) ;
#105 = DIRECTION ( 'NONE',  ( -4.956352788505163300E-016, 1.000000000000000000, -0.0000000000000000000 ) ) ;
#106 = CARTESIAN_POINT ( 'NONE',  ( 0.0000000000000000000, 0.0000000000000000000, 500.0000000000000000 ) ) ;
#107 = DIRECTION ( 'NONE',  ( -0.0000000000000000000, 0.0000000000000000000, 1.000000000000000000 ) ) ;
#108 = DIRECTION ( 'NONE',  ( 1.000000000000000000, 0.0000000000000000000, 0.0000000000000000000 ) ) ;
#109 = LINE ( 'NONE', #110, #28 ) ;
#110 = CARTESIAN_POINT ( 'NONE',  ( 10.00000000000000200, -3.500000000000000900, 500.0000000000000000 ) ) ;
#111 = DIRECTION ( 'NONE',  ( -0.0000000000000000000, -0.0000000000000000000, -1.000000000000000000 ) ) ;
#112 = DIRECTION ( 'NONE',  ( 1.000000000000000000, 0.0000000000000000000, 0.0000000000000000000 ) ) ;
#113 = DIRECTION ( 'NONE',  ( -0.0000000000000000000, 0.0000000000000000000, -1.000000000000000000 ) ) ;
#114 = LINE ( 'NONE', #122, #17 ) ;
#115 = CARTESIAN_POINT ( 'NONE',  ( -10.00000000000000200, 3.499999999999999100, 500.0000000000000000 ) ) ;
#116 = DIRECTION ( 'NONE',  ( 1.000000000000000000, 0.0000000000000000000, -0.0000000000000000000 ) ) ;
#117 = LINE ( 'NONE', #118, #1 ) ;
#118 = CARTESIAN_POINT ( 'NONE',  ( -10.00000000000000200, -3.500000000000000900, -500.0000000000000000 ) ) ;
#119 = PLANE ( 'NONE',  #2 ) ;
#120 = DIRECTION ( 'NONE',  ( -1.000000000000000000, -0.0000000000000000000, -0.0000000000000000000 ) ) ;
#121 = CARTESIAN_POINT ( 'NONE',  ( -10.00000000000000200, 3.499999999999999100, -500.0000000000000000 ) ) ;
#122 = CARTESIAN_POINT ( 'NONE',  ( -10.00000000000000200, 3.499999999999999100, -500.0000000000000000 ) ) ;
#123 = PLANE ( 'NONE',  #11 ) ;
#124 = CARTESIAN_POINT ( 'NONE',  ( -10.00000000000000200, -3.500000000000000900, 500.0000000000000000 ) ) ;
#125 = DIRECTION ( 'NONE',  ( 0.0000000000000000000, -1.000000000000000000, 0.0000000000000000000 ) ) ;
#126 = LINE ( 'NONE', #121, #14 ) ;
#127 = DIRECTION ( 'NONE',  ( 0.0000000000000000000, 1.000000000000000000, 0.0000000000000000000 ) ) ;
#128 = DIRECTION ( 'NONE',  ( 0.0000000000000000000, -0.0000000000000000000, 1.000000000000000000 ) ) ;
#129 = LINE ( 'NONE', #131, #21 ) ;
#130 = PLANE ( 'NONE',  #8 ) ;
#131 = CARTESIAN_POINT ( 'NONE',  ( -10.00000000000000200, 3.499999999999999100, 500.0000000000000000 ) ) ;
#132 = DIRECTION ( 'NONE',  ( -0.0000000000000000000, -0.0000000000000000000, -1.000000000000000000 ) ) ;
#133 = CARTESIAN_POINT ( 'NONE',  ( 9.999999999999998200, 3.499999999999999100, 500.0000000000000000 ) ) ;
#134 = DIRECTION ( 'NONE',  ( -1.000000000000000000, -4.956352788505163300E-016, 0.0000000000000000000 ) ) ;
#135 = DIRECTION ( 'NONE',  ( 4.956352788505163300E-016, -1.000000000000000000, 0.0000000000000000000 ) ) ;
#136 = LINE ( 'NONE', #137, #19 ) ;
#137 = CARTESIAN_POINT ( 'NONE',  ( -10.00000000000000200, -3.500000000000000900, 500.0000000000000000 ) ) ;
#138 = DIRECTION ( 'NONE',  ( -0.0000000000000000000, -0.0000000000000000000, -1.000000000000000000 ) ) ;
#139 = PLANE ( 'NONE',  #36 ) ;
#140 = LINE ( 'NONE', #141, #20 ) ;
#141 = CARTESIAN_POINT ( 'NONE',  ( 9.999999999999998200, 3.499999999999999100, 500.0000000000000000 ) ) ;
#142 = DIRECTION ( 'NONE',  ( -0.0000000000000000000, -0.0000000000000000000, -1.000000000000000000 ) ) ;
#143 = CARTESIAN_POINT ( 'NONE',  ( -10.00000000000000200, 3.499999999999999100, 500.0000000000000000 ) ) ;
#144 = DIRECTION ( 'NONE',  ( 0.0000000000000000000, -1.000000000000000000, 0.0000000000000000000 ) ) ;
#145 = DIRECTION ( 'NONE',  ( 0.0000000000000000000, -0.0000000000000000000, -1.000000000000000000 ) ) ;
#146 = PLANE ( 'NONE',  #6 ) ;
#147 = CARTESIAN_POINT ( 'NONE',  ( 0.0000000000000000000, 0.0000000000000000000, -500.0000000000000000 ) ) ;
#148 = DIRECTION ( 'NONE',  ( -0.0000000000000000000, 0.0000000000000000000, 1.000000000000000000 ) ) ;
#149 = DIRECTION ( 'NONE',  ( 1.000000000000000000, 0.0000000000000000000, 0.0000000000000000000 ) ) ;
#150 =( LENGTH_UNIT ( ) NAMED_UNIT ( * ) SI_UNIT ( .MILLI., .METRE. ) );
#151 =( NAMED_UNIT ( * ) PLANE_ANGLE_UNIT ( ) SI_UNIT ( $, .RADIAN. ) );
#152 =( NAMED_UNIT ( * ) SI_UNIT ( $, .STERADIAN. ) SOLID_ANGLE_UNIT ( ) );
#153 = APPLICATION_PROTOCOL_DEFINITION ( 'international standard', 'config_control_design', 1994, #235 ) ;
#154 = CARTESIAN_POINT ( 'NONE',  ( 0.0000000000000000000, 0.0000000000000000000, 0.0000000000000000000 ) ) ;
#155 = DIRECTION ( 'NONE',  ( 0.0000000000000000000, 0.0000000000000000000, 1.000000000000000000 ) ) ;
#156 = DIRECTION ( 'NONE',  ( 1.000000000000000000, 0.0000000000000000000, 0.0000000000000000000 ) ) ;
#157 = SHAPE_DEFINITION_REPRESENTATION ( #190, #197 ) ;
#158 = MECHANICAL_CONTEXT ( 'NONE', #235, 'mechanical' ) ;
#159 = PERSON_AND_ORGANIZATION ( #195, #27 ) ;
#160 = PERSON_AND_ORGANIZATION_ROLE ( 'design_owner' ) ;
#161 = APPLICATION_PROTOCOL_DEFINITION ( 'international standard', 'config_control_design', 1994, #236 ) ;
#162 = PERSON_AND_ORGANIZATION ( #195, #27 ) ;
#163 = APPROVAL_STATUS ( 'not_yet_approved' ) ;
#164 = APPROVAL_ROLE ( '' ) ;
#165 = DATE_AND_TIME ( #38, #225 ) ;
#166 = APPROVAL_DATE_TIME ( #165, #211 ) ;
#167 = PERSON_AND_ORGANIZATION ( #195, #27 ) ;
#168 = PERSON_AND_ORGANIZATION_ROLE ( 'creator' ) ;
#169 = DATE_AND_TIME ( #26, #229 ) ;
#170 = DATE_TIME_ROLE ( 'creation_date' ) ;
#171 = PERSON_AND_ORGANIZATION ( #195, #27 ) ;
#172 = APPROVAL_STATUS ( 'not_yet_approved' ) ;
#173 = APPROVAL_ROLE ( '' ) ;
#174 = DATE_AND_TIME ( #25, #204 ) ;
#175 = APPROVAL_DATE_TIME ( #174, #203 ) ;
#176 = PERSON_AND_ORGANIZATION ( #195, #27 ) ;
#177 = PERSON_AND_ORGANIZATION_ROLE ( 'creator' ) ;
#178 = PERSON_AND_ORGANIZATION ( #195, #27 ) ;
#179 = PERSON_AND_ORGANIZATION_ROLE ( 'design_supplier' ) ;
#180 = SECURITY_CLASSIFICATION_LEVEL ( 'unclassified' ) ;
#181 = PERSON_AND_ORGANIZATION ( #195, #27 ) ;
#182 = PERSON_AND_ORGANIZATION_ROLE ( 'classification_officer' ) ;
#183 = DATE_AND_TIME ( #37, #219 ) ;
#184 = DATE_TIME_ROLE ( 'classification_date' ) ;
#185 = PERSON_AND_ORGANIZATION ( #195, #27 ) ;
#186 = APPROVAL_STATUS ( 'not_yet_approved' ) ;
#187 = APPROVAL_ROLE ( '' ) ;
#188 = DATE_AND_TIME ( #194, #221 ) ;
#189 = APPROVAL_DATE_TIME ( #188, #217 ) ;
#190 = PRODUCT_DEFINITION_SHAPE ( 'NONE', 'NONE',  #223 ) ;
#191 = DESIGN_CONTEXT ( 'detailed design', #236, 'design' ) ;
#192 = CC_DESIGN_APPROVAL ( #217, ( #22 ) ) ;
#193 = CC_DESIGN_SECURITY_CLASSIFICATION ( #22, ( #24 ) ) ;
#194 = CALENDAR_DATE ( 2015, 11, 8 ) ;
#195 = PERSON ( 'UNSPECIFIED', 'UNSPECIFIED', 'UNSPECIFIED', ('UNSPECIFIED'), ('UNSPECIFIED'), ('UNSPECIFIED') ) ;
#196 = UNCERTAINTY_MEASURE_WITH_UNIT (LENGTH_MEASURE( 1.000000000000000100E-005 ), #150, 'distance_accuracy_value', 'NONE');
#197 = ADVANCED_BREP_SHAPE_REPRESENTATION ( 'sone3D', ( #237, #43 ), #233 ) ;
#198 = EDGE_CURVE ( 'NONE', #80, #75, #90, .T. ) ;
#199 = EDGE_CURVE ( 'NONE', #81, #80, #94, .T. ) ;
#200 = EDGE_CURVE ( 'NONE', #74, #81, #97, .T. ) ;
#201 = EDGE_CURVE ( 'NONE', #75, #74, #100, .T. ) ;
#202 = EDGE_CURVE ( 'NONE', #78, #77, #103, .T. ) ;
#203 = APPROVAL ( #172, 'UNSPECIFIED' ) ;
#204 = LOCAL_TIME ( 19, 16, 43.00000000000000000, #10 ) ;
#205 = PRODUCT_RELATED_PRODUCT_CATEGORY ( 'detail', '', ( #234 ) ) ;
#206 = ADVANCED_FACE ( 'NONE', ( #13 ), #93, .T. ) ;
#207 = CC_DESIGN_PERSON_AND_ORGANIZATION_ASSIGNMENT ( #176, #177, ( #24 ) ) ;
#208 = EDGE_CURVE ( 'NONE', #75, #78, #109, .T. ) ;
#209 = CC_DESIGN_PERSON_AND_ORGANIZATION_ASSIGNMENT ( #167, #168, ( #223 ) ) ;
#210 = EDGE_CURVE ( 'NONE', #79, #78, #117, .T. ) ;
#211 = APPROVAL ( #163, 'UNSPECIFIED' ) ;
#212 = ADVANCED_FACE ( 'NONE', ( #23 ), #119, .F. ) ;
#213 = EDGE_CURVE ( 'NONE', #77, #76, #114, .T. ) ;
#214 = ADVANCED_FACE ( 'NONE', ( #5 ), #123, .F. ) ;
#215 = EDGE_CURVE ( 'NONE', #76, #79, #126, .T. ) ;
#216 = EDGE_CURVE ( 'NONE', #81, #76, #129, .T. ) ;
#217 = APPROVAL ( #186, 'UNSPECIFIED' ) ;
#218 = CC_DESIGN_DATE_AND_TIME_ASSIGNMENT ( #183, #184, ( #22 ) ) ;
#219 = LOCAL_TIME ( 19, 16, 43.00000000000000000, #34 ) ;
#220 = CC_DESIGN_PERSON_AND_ORGANIZATION_ASSIGNMENT ( #181, #182, ( #22 ) ) ;
#221 = LOCAL_TIME ( 19, 16, 43.00000000000000000, #33 ) ;
#222 = CC_DESIGN_PERSON_AND_ORGANIZATION_ASSIGNMENT ( #159, #160, ( #234 ) ) ;
#223 = PRODUCT_DEFINITION ( 'UNKNOWN', '', #24, #191 ) ;
#224 = ADVANCED_FACE ( 'NONE', ( #35 ), #130, .F. ) ;
#225 = LOCAL_TIME ( 19, 16, 43.00000000000000000, #29 ) ;
#226 = EDGE_CURVE ( 'NONE', #80, #79, #136, .T. ) ;
#227 = EDGE_CURVE ( 'NONE', #74, #77, #140, .T. ) ;
#228 = CC_DESIGN_DATE_AND_TIME_ASSIGNMENT ( #169, #170, ( #223 ) ) ;
#229 = LOCAL_TIME ( 19, 16, 43.00000000000000000, #39 ) ;
#230 = ADVANCED_FACE ( 'NONE', ( #15 ), #139, .F. ) ;
#231 = CC_DESIGN_PERSON_AND_ORGANIZATION_ASSIGNMENT ( #178, #179, ( #24 ) ) ;
#232 = ADVANCED_FACE ( 'NONE', ( #18 ), #146, .F. ) ;
#233 =( GEOMETRIC_REPRESENTATION_CONTEXT ( 3 ) GLOBAL_UNCERTAINTY_ASSIGNED_CONTEXT ( ( #196 ) ) GLOBAL_UNIT_ASSIGNED_CONTEXT ( ( #150, #151, #152 ) ) REPRESENTATION_CONTEXT ( 'NONE', 'WORKASPACE' ) );
#234 = PRODUCT ( 'sone3D', 'sone3D', '', ( #158 ) ) ;
#235 = APPLICATION_CONTEXT ( 'configuration controlled 3d designs of mechanical parts and assemblies' ) ;
#236 = APPLICATION_CONTEXT ( 'configuration controlled 3d designs of mechanical parts and assemblies' ) ;
#237 = MANIFOLD_SOLID_BREP ( 'ÎÞ½ - µoµ1', #9 ) ;
ENDSEC;
END-ISO-10303-21;
