ISO-10303-21;
HEADER;
FILE_DESCRIPTION (( 'STEP AP203' ),
    '1' );
FILE_NAME ('sone3D.STEP',
    '2015-08-11T10:16:23',
    ( '' ),
    ( '' ),
    'SwSTEP 2.0',
    'SolidWorks 2012',
    '' );
FILE_SCHEMA (( 'CONFIG_CONTROL_DESIGN' ));
ENDSEC;

DATA;
#1 = FACE_OUTER_BOUND ( 'NONE', #109, .T. ) ;
#2 = VECTOR ( 'NONE', #58, 1000.000000000000000 ) ;
#3 = VECTOR ( 'NONE', #61, 1000.000000000000000 ) ;
#4 = AXIS2_PLACEMENT_3D ( 'NONE', #136, #137, #138 ) ;
#5 = VECTOR ( 'NONE', #118, 1000.000000000000000 ) ;
#6 = APPROVAL_PERSON_ORGANIZATION ( #165, #230, #167 ) ;
#7 = AXIS2_PLACEMENT_3D ( 'NONE', #119, #120, #121 ) ;
#8 = AXIS2_PLACEMENT_3D ( 'NONE', #123, #124, #125 ) ;
#9 = AXIS2_PLACEMENT_3D ( 'NONE', #51, #50, #49 ) ;
#10 = VECTOR ( 'NONE', #52, 1000.000000000000000 ) ;
#11 = CALENDAR_DATE ( 2015, 11, 8 ) ;
#12 = CC_DESIGN_APPROVAL ( #230, ( #216 ) ) ;
#13 = VECTOR ( 'NONE', #65, 1000.000000000000000 ) ;
#14 = CALENDAR_DATE ( 2015, 11, 8 ) ;
#15 = AXIS2_PLACEMENT_3D ( 'NONE', #140, #141, #142 ) ;
#16 = COORDINATED_UNIVERSAL_TIME_OFFSET ( 9, 0, .AHEAD. ) ;
#17 = VECTOR ( 'NONE', #145, 1000.000000000000000 ) ;
#18 = COORDINATED_UNIVERSAL_TIME_OFFSET ( 9, 0, .AHEAD. ) ;
#19 = FACE_OUTER_BOUND ( 'NONE', #111, .T. ) ;
#20 = FACE_OUTER_BOUND ( 'NONE', #110, .T. ) ;
#21 = VECTOR ( 'NONE', #55, 1000.000000000000000 ) ;
#22 = APPROVAL_PERSON_ORGANIZATION ( #174, #212, #176 ) ;
#23 = FACE_OUTER_BOUND ( 'NONE', #112, .T. ) ;
#24 = COORDINATED_UNIVERSAL_TIME_OFFSET ( 9, 0, .AHEAD. ) ;
#25 = ORGANIZATION ( 'UNSPECIFIED', 'UNSPECIFIED', '' ) ;
#26 = FACE_OUTER_BOUND ( 'NONE', #113, .T. ) ;
#27 = VECTOR ( 'NONE', #115, 1000.000000000000000 ) ;
#28 = COORDINATED_UNIVERSAL_TIME_OFFSET ( 9, 0, .AHEAD. ) ;
#29 = VECTOR ( 'NONE', #128, 1000.000000000000000 ) ;
#30 = CALENDAR_DATE ( 2015, 11, 8 ) ;
#31 = CC_DESIGN_APPROVAL ( #207, ( #41 ) ) ;
#32 = FACE_OUTER_BOUND ( 'NONE', #108, .T. ) ;
#33 = COORDINATED_UNIVERSAL_TIME_OFFSET ( 9, 0, .AHEAD. ) ;
#34 = CALENDAR_DATE ( 2015, 11, 8 ) ;
#35 = AXIS2_PLACEMENT_3D ( 'NONE', #147, #148, #149 ) ;
#36 = CC_DESIGN_SECURITY_CLASSIFICATION ( #41, ( #46 ) ) ;
#37 = CC_DESIGN_APPROVAL ( #212, ( #46 ) ) ;
#38 = CALENDAR_DATE ( 2015, 11, 8 ) ;
#39 = CLOSED_SHELL ( 'NONE', ( #227, #221, #226, #215, #222, #231 ) ) ;
#40 = VECTOR ( 'NONE', #152, 1000.000000000000000 ) ;
#41 = SECURITY_CLASSIFICATION ( '', '', #183 ) ;
#42 = AXIS2_PLACEMENT_3D ( 'NONE', #157, #158, #159 ) ;
#43 = APPROVAL_PERSON_ORGANIZATION ( #188, #207, #190 ) ;
#44 = VECTOR ( 'NONE', #132, 1000.000000000000000 ) ;
#45 = VECTOR ( 'NONE', #135, 1000.000000000000000 ) ;
#46 = PRODUCT_DEFINITION_FORMATION_WITH_SPECIFIED_SOURCE ( 'ANY', '', #199, .NOT_KNOWN. ) ;
#47 = CARTESIAN_POINT ( 'NONE',  ( -7.500000000000000900, -3.500000000000000900, 500.0000000000000000 ) ) ;
#48 = LINE ( 'NONE', #47, #27 ) ;
#49 = DIRECTION ( 'NONE',  ( 0.0000000000000000000, -0.0000000000000000000, -1.000000000000000000 ) ) ;
#50 = DIRECTION ( 'NONE',  ( 0.0000000000000000000, -1.000000000000000000, 0.0000000000000000000 ) ) ;
#51 = CARTESIAN_POINT ( 'NONE',  ( -7.500000000000001800, 3.499999999999999100, 500.0000000000000000 ) ) ;
#52 = DIRECTION ( 'NONE',  ( -0.0000000000000000000, 1.000000000000000000, -0.0000000000000000000 ) ) ;
#53 = CARTESIAN_POINT ( 'NONE',  ( 7.499999999999998200, 3.499999999999999100, 500.0000000000000000 ) ) ;
#54 = LINE ( 'NONE', #53, #10 ) ;
#55 = DIRECTION ( 'NONE',  ( -0.0000000000000000000, -0.0000000000000000000, -1.000000000000000000 ) ) ;
#56 = CARTESIAN_POINT ( 'NONE',  ( 7.499999999999998200, -3.500000000000000900, 500.0000000000000000 ) ) ;
#57 = LINE ( 'NONE', #56, #21 ) ;
#58 = DIRECTION ( 'NONE',  ( -1.000000000000000000, -0.0000000000000000000, -0.0000000000000000000 ) ) ;
#59 = CARTESIAN_POINT ( 'NONE',  ( -7.500000000000001800, 3.499999999999999100, 500.0000000000000000 ) ) ;
#60 = LINE ( 'NONE', #59, #2 ) ;
#61 = DIRECTION ( 'NONE',  ( 1.000000000000000000, 0.0000000000000000000, 0.0000000000000000000 ) ) ;
#62 = CARTESIAN_POINT ( 'NONE',  ( -7.500000000000000900, -3.500000000000000900, 500.0000000000000000 ) ) ;
#63 = LINE ( 'NONE', #62, #3 ) ;
#64 = PLANE ( 'NONE',  #9 ) ;
#65 = DIRECTION ( 'NONE',  ( 1.000000000000000000, 0.0000000000000000000, 0.0000000000000000000 ) ) ;
#66 = CARTESIAN_POINT ( 'NONE',  ( -7.500000000000000900, -3.500000000000000900, -500.0000000000000000 ) ) ;
#67 = LINE ( 'NONE', #66, #13 ) ;
#68 = CARTESIAN_POINT ( 'NONE',  ( -7.500000000000000900, -3.500000000000000900, 500.0000000000000000 ) ) ;
#69 = CARTESIAN_POINT ( 'NONE',  ( -7.500000000000001800, 3.499999999999999100, 500.0000000000000000 ) ) ;
#70 = CARTESIAN_POINT ( 'NONE',  ( 7.499999999999998200, 3.499999999999999100, 500.0000000000000000 ) ) ;
#71 = CARTESIAN_POINT ( 'NONE',  ( 7.499999999999998200, -3.500000000000000900, -500.0000000000000000 ) ) ;
#72 = CARTESIAN_POINT ( 'NONE',  ( 7.499999999999998200, -3.500000000000000900, 500.0000000000000000 ) ) ;
#73 = CARTESIAN_POINT ( 'NONE',  ( -7.500000000000001800, 3.499999999999999100, -500.0000000000000000 ) ) ;
#74 = CARTESIAN_POINT ( 'NONE',  ( -7.500000000000000900, -3.500000000000000900, -500.0000000000000000 ) ) ;
#75 = CARTESIAN_POINT ( 'NONE',  ( 7.499999999999998200, 3.499999999999999100, -500.0000000000000000 ) ) ;
#76 = VERTEX_POINT ( 'NONE', #75 ) ;
#77 = VERTEX_POINT ( 'NONE', #74 ) ;
#78 = VERTEX_POINT ( 'NONE', #73 ) ;
#79 = VERTEX_POINT ( 'NONE', #72 ) ;
#80 = VERTEX_POINT ( 'NONE', #71 ) ;
#81 = VERTEX_POINT ( 'NONE', #70 ) ;
#82 = VERTEX_POINT ( 'NONE', #69 ) ;
#83 = VERTEX_POINT ( 'NONE', #68 ) ;
#84 = ORIENTED_EDGE ( 'NONE', *, *, #218, .F. ) ;
#85 = ORIENTED_EDGE ( 'NONE', *, *, #225, .T. ) ;
#86 = ORIENTED_EDGE ( 'NONE', *, *, #217, .F. ) ;
#87 = ORIENTED_EDGE ( 'NONE', *, *, #229, .T. ) ;
#88 = ORIENTED_EDGE ( 'NONE', *, *, #201, .F. ) ;
#89 = ORIENTED_EDGE ( 'NONE', *, *, #203, .F. ) ;
#90 = ORIENTED_EDGE ( 'NONE', *, *, #217, .T. ) ;
#91 = ORIENTED_EDGE ( 'NONE', *, *, #234, .T. ) ;
#92 = ORIENTED_EDGE ( 'NONE', *, *, #225, .F. ) ;
#93 = ORIENTED_EDGE ( 'NONE', *, *, #202, .T. ) ;
#94 = ORIENTED_EDGE ( 'NONE', *, *, #223, .T. ) ;
#95 = ORIENTED_EDGE ( 'NONE', *, *, #218, .T. ) ;
#96 = ORIENTED_EDGE ( 'NONE', *, *, #201, .T. ) ;
#97 = ORIENTED_EDGE ( 'NONE', *, *, #206, .T. ) ;
#98 = ORIENTED_EDGE ( 'NONE', *, *, #200, .F. ) ;
#99 = ORIENTED_EDGE ( 'NONE', *, *, #200, .T. ) ;
#100 = ORIENTED_EDGE ( 'NONE', *, *, #229, .F. ) ;
#101 = ORIENTED_EDGE ( 'NONE', *, *, #224, .F. ) ;
#102 = ORIENTED_EDGE ( 'NONE', *, *, #223, .F. ) ;
#103 = ORIENTED_EDGE ( 'NONE', *, *, #234, .F. ) ;
#104 = ORIENTED_EDGE ( 'NONE', *, *, #206, .F. ) ;
#105 = ORIENTED_EDGE ( 'NONE', *, *, #202, .F. ) ;
#106 = ORIENTED_EDGE ( 'NONE', *, *, #203, .T. ) ;
#107 = ORIENTED_EDGE ( 'NONE', *, *, #224, .T. ) ;
#108 = EDGE_LOOP ( 'NONE', ( #99, #89, #88, #90 ) ) ;
#109 = EDGE_LOOP ( 'NONE', ( #91, #102, #104, #106 ) ) ;
#110 = EDGE_LOOP ( 'NONE', ( #87, #86, #84, #85 ) ) ;
#111 = EDGE_LOOP ( 'NONE', ( #107, #92, #105, #94 ) ) ;
#112 = EDGE_LOOP ( 'NONE', ( #95, #96, #97, #93 ) ) ;
#113 = EDGE_LOOP ( 'NONE', ( #100, #101, #103, #98 ) ) ;
#114 = PLANE ( 'NONE',  #7 ) ;
#115 = DIRECTION ( 'NONE',  ( -0.0000000000000000000, -0.0000000000000000000, -1.000000000000000000 ) ) ;
#116 = LINE ( 'NONE', #117, #5 ) ;
#117 = CARTESIAN_POINT ( 'NONE',  ( -7.500000000000001800, 3.499999999999999100, 500.0000000000000000 ) ) ;
#118 = DIRECTION ( 'NONE',  ( 1.239088197126290800E-016, -1.000000000000000000, 0.0000000000000000000 ) ) ;
#119 = CARTESIAN_POINT ( 'NONE',  ( -7.500000000000000900, -3.500000000000000900, 500.0000000000000000 ) ) ;
#120 = DIRECTION ( 'NONE',  ( 0.0000000000000000000, 1.000000000000000000, 0.0000000000000000000 ) ) ;
#121 = DIRECTION ( 'NONE',  ( 0.0000000000000000000, -0.0000000000000000000, 1.000000000000000000 ) ) ;
#122 = PLANE ( 'NONE',  #8 ) ;
#123 = CARTESIAN_POINT ( 'NONE',  ( 0.0000000000000000000, 0.0000000000000000000, 500.0000000000000000 ) ) ;
#124 = DIRECTION ( 'NONE',  ( -0.0000000000000000000, 0.0000000000000000000, 1.000000000000000000 ) ) ;
#125 = DIRECTION ( 'NONE',  ( 1.000000000000000000, 0.0000000000000000000, 0.0000000000000000000 ) ) ;
#126 = LINE ( 'NONE', #127, #29 ) ;
#127 = CARTESIAN_POINT ( 'NONE',  ( 7.499999999999998200, 3.499999999999999100, 500.0000000000000000 ) ) ;
#128 = DIRECTION ( 'NONE',  ( -0.0000000000000000000, -0.0000000000000000000, -1.000000000000000000 ) ) ;
#129 = PLANE ( 'NONE',  #4 ) ;
#130 = LINE ( 'NONE', #131, #44 ) ;
#131 = CARTESIAN_POINT ( 'NONE',  ( -7.500000000000001800, 3.499999999999999100, -500.0000000000000000 ) ) ;
#132 = DIRECTION ( 'NONE',  ( -1.000000000000000000, -0.0000000000000000000, -0.0000000000000000000 ) ) ;
#133 = LINE ( 'NONE', #134, #45 ) ;
#134 = CARTESIAN_POINT ( 'NONE',  ( -7.500000000000001800, 3.499999999999999100, 500.0000000000000000 ) ) ;
#135 = DIRECTION ( 'NONE',  ( -0.0000000000000000000, -0.0000000000000000000, -1.000000000000000000 ) ) ;
#136 = CARTESIAN_POINT ( 'NONE',  ( 7.499999999999998200, 3.499999999999999100, 500.0000000000000000 ) ) ;
#137 = DIRECTION ( 'NONE',  ( -1.000000000000000000, 0.0000000000000000000, 0.0000000000000000000 ) ) ;
#138 = DIRECTION ( 'NONE',  ( 0.0000000000000000000, 0.0000000000000000000, 1.000000000000000000 ) ) ;
#139 = PLANE ( 'NONE',  #15 ) ;
#140 = CARTESIAN_POINT ( 'NONE',  ( -7.500000000000001800, 3.499999999999999100, 500.0000000000000000 ) ) ;
#141 = DIRECTION ( 'NONE',  ( 1.000000000000000000, 1.239088197126290800E-016, -0.0000000000000000000 ) ) ;
#142 = DIRECTION ( 'NONE',  ( -1.239088197126290800E-016, 1.000000000000000000, 0.0000000000000000000 ) ) ;
#143 = LINE ( 'NONE', #144, #17 ) ;
#144 = CARTESIAN_POINT ( 'NONE',  ( -7.500000000000001800, 3.499999999999999100, -500.0000000000000000 ) ) ;
#145 = DIRECTION ( 'NONE',  ( 1.239088197126290800E-016, -1.000000000000000000, 0.0000000000000000000 ) ) ;
#146 = PLANE ( 'NONE',  #35 ) ;
#147 = CARTESIAN_POINT ( 'NONE',  ( 0.0000000000000000000, 0.0000000000000000000, -500.0000000000000000 ) ) ;
#148 = DIRECTION ( 'NONE',  ( -0.0000000000000000000, 0.0000000000000000000, 1.000000000000000000 ) ) ;
#149 = DIRECTION ( 'NONE',  ( 1.000000000000000000, 0.0000000000000000000, 0.0000000000000000000 ) ) ;
#150 = LINE ( 'NONE', #151, #40 ) ;
#151 = CARTESIAN_POINT ( 'NONE',  ( 7.499999999999998200, 3.499999999999999100, -500.0000000000000000 ) ) ;
#152 = DIRECTION ( 'NONE',  ( -0.0000000000000000000, 1.000000000000000000, -0.0000000000000000000 ) ) ;
#153 =( LENGTH_UNIT ( ) NAMED_UNIT ( * ) SI_UNIT ( .MILLI., .METRE. ) );
#154 =( NAMED_UNIT ( * ) PLANE_ANGLE_UNIT ( ) SI_UNIT ( $, .RADIAN. ) );
#155 =( NAMED_UNIT ( * ) SI_UNIT ( $, .STERADIAN. ) SOLID_ANGLE_UNIT ( ) );
#156 = APPLICATION_PROTOCOL_DEFINITION ( 'international standard', 'config_control_design', 1994, #237 ) ;
#157 = CARTESIAN_POINT ( 'NONE',  ( 0.0000000000000000000, 0.0000000000000000000, 0.0000000000000000000 ) ) ;
#158 = DIRECTION ( 'NONE',  ( 0.0000000000000000000, 0.0000000000000000000, 1.000000000000000000 ) ) ;
#159 = DIRECTION ( 'NONE',  ( 1.000000000000000000, 0.0000000000000000000, 0.0000000000000000000 ) ) ;
#160 = SHAPE_DEFINITION_REPRESENTATION ( #193, #198 ) ;
#161 = MECHANICAL_CONTEXT ( 'NONE', #237, 'mechanical' ) ;
#162 = PERSON_AND_ORGANIZATION ( #197, #25 ) ;
#163 = PERSON_AND_ORGANIZATION_ROLE ( 'design_owner' ) ;
#164 = APPLICATION_PROTOCOL_DEFINITION ( 'international standard', 'config_control_design', 1994, #236 ) ;
#165 = PERSON_AND_ORGANIZATION ( #197, #25 ) ;
#166 = APPROVAL_STATUS ( 'not_yet_approved' ) ;
#167 = APPROVAL_ROLE ( '' ) ;
#168 = DATE_AND_TIME ( #14, #233 ) ;
#169 = APPROVAL_DATE_TIME ( #168, #230 ) ;
#170 = PERSON_AND_ORGANIZATION ( #197, #25 ) ;
#171 = PERSON_AND_ORGANIZATION_ROLE ( 'creator' ) ;
#172 = DATE_AND_TIME ( #38, #232 ) ;
#173 = DATE_TIME_ROLE ( 'creation_date' ) ;
#174 = PERSON_AND_ORGANIZATION ( #197, #25 ) ;
#175 = APPROVAL_STATUS ( 'not_yet_approved' ) ;
#176 = APPROVAL_ROLE ( '' ) ;
#177 = DATE_AND_TIME ( #34, #214 ) ;
#178 = APPROVAL_DATE_TIME ( #177, #212 ) ;
#179 = PERSON_AND_ORGANIZATION ( #197, #25 ) ;
#180 = PERSON_AND_ORGANIZATION_ROLE ( 'creator' ) ;
#181 = PERSON_AND_ORGANIZATION ( #197, #25 ) ;
#182 = PERSON_AND_ORGANIZATION_ROLE ( 'design_supplier' ) ;
#183 = SECURITY_CLASSIFICATION_LEVEL ( 'unclassified' ) ;
#184 = PERSON_AND_ORGANIZATION ( #197, #25 ) ;
#185 = PERSON_AND_ORGANIZATION_ROLE ( 'classification_officer' ) ;
#186 = DATE_AND_TIME ( #11, #208 ) ;
#187 = DATE_TIME_ROLE ( 'classification_date' ) ;
#188 = PERSON_AND_ORGANIZATION ( #197, #25 ) ;
#189 = APPROVAL_STATUS ( 'not_yet_approved' ) ;
#190 = APPROVAL_ROLE ( '' ) ;
#191 = DATE_AND_TIME ( #30, #211 ) ;
#192 = APPROVAL_DATE_TIME ( #191, #207 ) ;
#193 = PRODUCT_DEFINITION_SHAPE ( 'NONE', 'NONE',  #216 ) ;
#194 = DESIGN_CONTEXT ( 'detailed design', #236, 'design' ) ;
#195 = MANIFOLD_SOLID_BREP ( 'ÎÞ½ - µoµ1', #39 ) ;
#196 = UNCERTAINTY_MEASURE_WITH_UNIT (LENGTH_MEASURE( 1.000000000000000100E-005 ), #153, 'distance_accuracy_value', 'NONE');
#197 = PERSON ( 'UNSPECIFIED', 'UNSPECIFIED', 'UNSPECIFIED', ('UNSPECIFIED'), ('UNSPECIFIED'), ('UNSPECIFIED') ) ;
#198 = ADVANCED_BREP_SHAPE_REPRESENTATION ( 'sone3D', ( #195, #42 ), #235 ) ;
#199 = PRODUCT ( 'sone3D', 'sone3D', '', ( #161 ) ) ;
#200 = EDGE_CURVE ( 'NONE', #77, #80, #67, .T. ) ;
#201 = EDGE_CURVE ( 'NONE', #83, #79, #63, .T. ) ;
#202 = EDGE_CURVE ( 'NONE', #81, #82, #60, .T. ) ;
#203 = EDGE_CURVE ( 'NONE', #79, #80, #57, .T. ) ;
#204 = CC_DESIGN_PERSON_AND_ORGANIZATION_ASSIGNMENT ( #179, #180, ( #46 ) ) ;
#205 = CC_DESIGN_PERSON_AND_ORGANIZATION_ASSIGNMENT ( #181, #182, ( #46 ) ) ;
#206 = EDGE_CURVE ( 'NONE', #79, #81, #54, .T. ) ;
#207 = APPROVAL ( #189, 'UNSPECIFIED' ) ;
#208 = LOCAL_TIME ( 19, 16, 23.00000000000000000, #28 ) ;
#209 = CC_DESIGN_DATE_AND_TIME_ASSIGNMENT ( #186, #187, ( #41 ) ) ;
#210 = CC_DESIGN_PERSON_AND_ORGANIZATION_ASSIGNMENT ( #184, #185, ( #41 ) ) ;
#211 = LOCAL_TIME ( 19, 16, 23.00000000000000000, #33 ) ;
#212 = APPROVAL ( #175, 'UNSPECIFIED' ) ;
#213 = PRODUCT_RELATED_PRODUCT_CATEGORY ( 'detail', '', ( #199 ) ) ;
#214 = LOCAL_TIME ( 19, 16, 23.00000000000000000, #24 ) ;
#215 = ADVANCED_FACE ( 'NONE', ( #19 ), #64, .F. ) ;
#216 = PRODUCT_DEFINITION ( 'UNKNOWN', '', #46, #194 ) ;
#217 = EDGE_CURVE ( 'NONE', #83, #77, #48, .T. ) ;
#218 = EDGE_CURVE ( 'NONE', #82, #83, #116, .T. ) ;
#219 = CC_DESIGN_PERSON_AND_ORGANIZATION_ASSIGNMENT ( #170, #171, ( #216 ) ) ;
#220 = CC_DESIGN_DATE_AND_TIME_ASSIGNMENT ( #172, #173, ( #216 ) ) ;
#221 = ADVANCED_FACE ( 'NONE', ( #32 ), #114, .F. ) ;
#222 = ADVANCED_FACE ( 'NONE', ( #23 ), #122, .T. ) ;
#223 = EDGE_CURVE ( 'NONE', #81, #76, #126, .T. ) ;
#224 = EDGE_CURVE ( 'NONE', #76, #78, #130, .T. ) ;
#225 = EDGE_CURVE ( 'NONE', #82, #78, #133, .T. ) ;
#226 = ADVANCED_FACE ( 'NONE', ( #1 ), #129, .F. ) ;
#227 = ADVANCED_FACE ( 'NONE', ( #20 ), #139, .F. ) ;
#228 = CC_DESIGN_PERSON_AND_ORGANIZATION_ASSIGNMENT ( #162, #163, ( #199 ) ) ;
#229 = EDGE_CURVE ( 'NONE', #78, #77, #143, .T. ) ;
#230 = APPROVAL ( #166, 'UNSPECIFIED' ) ;
#231 = ADVANCED_FACE ( 'NONE', ( #26 ), #146, .F. ) ;
#232 = LOCAL_TIME ( 19, 16, 23.00000000000000000, #18 ) ;
#233 = LOCAL_TIME ( 19, 16, 23.00000000000000000, #16 ) ;
#234 = EDGE_CURVE ( 'NONE', #80, #76, #150, .T. ) ;
#235 =( GEOMETRIC_REPRESENTATION_CONTEXT ( 3 ) GLOBAL_UNCERTAINTY_ASSIGNED_CONTEXT ( ( #196 ) ) GLOBAL_UNIT_ASSIGNED_CONTEXT ( ( #153, #154, #155 ) ) REPRESENTATION_CONTEXT ( 'NONE', 'WORKASPACE' ) );
#236 = APPLICATION_CONTEXT ( 'configuration controlled 3d designs of mechanical parts and assemblies' ) ;
#237 = APPLICATION_CONTEXT ( 'configuration controlled 3d designs of mechanical parts and assemblies' ) ;
ENDSEC;
END-ISO-10303-21;
