ISO-10303-21;
HEADER;
FILE_DESCRIPTION (( 'STEP AP203' ),
    '1' );
FILE_NAME ('sone3D.STEP',
    '2015-08-11T10:16:02',
    ( '' ),
    ( '' ),
    'SwSTEP 2.0',
    'SolidWorks 2012',
    '' );
FILE_SCHEMA (( 'CONFIG_CONTROL_DESIGN' ));
ENDSEC;

DATA;
#1 = APPROVAL_PERSON_ORGANIZATION ( #84, #213, #86 ) ;
#2 = VECTOR ( 'NONE', #133, 1000.000000000000000 ) ;
#3 = CC_DESIGN_APPROVAL ( #202, ( #32 ) ) ;
#4 = FACE_OUTER_BOUND ( 'NONE', #147, .T. ) ;
#5 = SECURITY_CLASSIFICATION ( '', '', #79 ) ;
#6 = CALENDAR_DATE ( 2015, 11, 8 ) ;
#7 = VECTOR ( 'NONE', #166, 1000.000000000000000 ) ;
#8 = VECTOR ( 'NONE', #173, 1000.000000000000000 ) ;
#9 = COORDINATED_UNIVERSAL_TIME_OFFSET ( 9, 0, .AHEAD. ) ;
#10 = VECTOR ( 'NONE', #141, 1000.000000000000000 ) ;
#11 = CALENDAR_DATE ( 2015, 11, 8 ) ;
#12 = VECTOR ( 'NONE', #135, 1000.000000000000000 ) ;
#13 = AXIS2_PLACEMENT_3D ( 'NONE', #127, #126, #139 ) ;
#14 = VECTOR ( 'NONE', #140, 1000.000000000000000 ) ;
#15 = COORDINATED_UNIVERSAL_TIME_OFFSET ( 9, 0, .AHEAD. ) ;
#16 = COORDINATED_UNIVERSAL_TIME_OFFSET ( 9, 0, .AHEAD. ) ;
#17 = COORDINATED_UNIVERSAL_TIME_OFFSET ( 9, 0, .AHEAD. ) ;
#18 = CALENDAR_DATE ( 2015, 11, 8 ) ;
#19 = CLOSED_SHELL ( 'NONE', ( #204, #226, #231, #220, #229, #215 ) ) ;
#20 = VECTOR ( 'NONE', #167, 1000.000000000000000 ) ;
#21 = COORDINATED_UNIVERSAL_TIME_OFFSET ( 9, 0, .AHEAD. ) ;
#22 = AXIS2_PLACEMENT_3D ( 'NONE', #53, #54, #55 ) ;
#23 = AXIS2_PLACEMENT_3D ( 'NONE', #142, #108, #137 ) ;
#24 = FACE_OUTER_BOUND ( 'NONE', #130, .T. ) ;
#25 = CC_DESIGN_APPROVAL ( #207, ( #216 ) ) ;
#26 = CC_DESIGN_APPROVAL ( #213, ( #5 ) ) ;
#27 = FACE_OUTER_BOUND ( 'NONE', #191, .T. ) ;
#28 = AXIS2_PLACEMENT_3D ( 'NONE', #169, #172, #175 ) ;
#29 = FACE_OUTER_BOUND ( 'NONE', #161, .T. ) ;
#30 = CALENDAR_DATE ( 2015, 11, 8 ) ;
#31 = AXIS2_PLACEMENT_3D ( 'NONE', #118, #116, #113 ) ;
#32 = PRODUCT_DEFINITION_FORMATION_WITH_SPECIFIED_SOURCE ( 'ANY', '', #197, .NOT_KNOWN. ) ;
#33 = VECTOR ( 'NONE', #112, 1000.000000000000000 ) ;
#34 = VECTOR ( 'NONE', #165, 1000.000000000000000 ) ;
#35 = VECTOR ( 'NONE', #136, 1000.000000000000000 ) ;
#36 = APPROVAL_PERSON_ORGANIZATION ( #70, #202, #72 ) ;
#37 = AXIS2_PLACEMENT_3D ( 'NONE', #188, #121, #158 ) ;
#38 = CC_DESIGN_SECURITY_CLASSIFICATION ( #5, ( #32 ) ) ;
#39 = FACE_OUTER_BOUND ( 'NONE', #138, .T. ) ;
#40 = ORGANIZATION ( 'UNSPECIFIED', 'UNSPECIFIED', '' ) ;
#41 = VECTOR ( 'NONE', #189, 1000.000000000000000 ) ;
#42 = VECTOR ( 'NONE', #152, 1000.000000000000000 ) ;
#43 = FACE_OUTER_BOUND ( 'NONE', #190, .T. ) ;
#44 = APPROVAL_PERSON_ORGANIZATION ( #61, #207, #63 ) ;
#45 = CALENDAR_DATE ( 2015, 11, 8 ) ;
#46 = AXIS2_PLACEMENT_3D ( 'NONE', #154, #159, #153 ) ;
#47 = MANIFOLD_SOLID_BREP ( 'ÎÞ½ - µoµ1', #19 ) ;
#48 = PRODUCT_DEFINITION_SHAPE ( 'NONE', 'NONE',  #216 ) ;
#49 = DESIGN_CONTEXT ( 'detailed design', #237, 'design' ) ;
#50 =( NAMED_UNIT ( * ) PLANE_ANGLE_UNIT ( ) SI_UNIT ( $, .RADIAN. ) );
#51 =( NAMED_UNIT ( * ) SI_UNIT ( $, .STERADIAN. ) SOLID_ANGLE_UNIT ( ) );
#52 = APPLICATION_PROTOCOL_DEFINITION ( 'international standard', 'config_control_design', 1994, #236 ) ;
#53 = CARTESIAN_POINT ( 'NONE',  ( 0.0000000000000000000, 0.0000000000000000000, 0.0000000000000000000 ) ) ;
#54 = DIRECTION ( 'NONE',  ( 0.0000000000000000000, 0.0000000000000000000, 1.000000000000000000 ) ) ;
#55 = DIRECTION ( 'NONE',  ( 1.000000000000000000, 0.0000000000000000000, 0.0000000000000000000 ) ) ;
#56 = SHAPE_DEFINITION_REPRESENTATION ( #48, #194 ) ;
#57 = MECHANICAL_CONTEXT ( 'NONE', #236, 'mechanical' ) ;
#58 = PERSON_AND_ORGANIZATION ( #195, #40 ) ;
#59 = PERSON_AND_ORGANIZATION_ROLE ( 'design_owner' ) ;
#60 = APPLICATION_PROTOCOL_DEFINITION ( 'international standard', 'config_control_design', 1994, #237 ) ;
#61 = PERSON_AND_ORGANIZATION ( #195, #40 ) ;
#62 = APPROVAL_STATUS ( 'not_yet_approved' ) ;
#63 = APPROVAL_ROLE ( '' ) ;
#64 = DATE_AND_TIME ( #6, #232 ) ;
#65 = APPROVAL_DATE_TIME ( #64, #207 ) ;
#66 = PERSON_AND_ORGANIZATION ( #195, #40 ) ;
#67 = PERSON_AND_ORGANIZATION_ROLE ( 'creator' ) ;
#68 = DATE_AND_TIME ( #18, #210 ) ;
#69 = DATE_TIME_ROLE ( 'creation_date' ) ;
#70 = PERSON_AND_ORGANIZATION ( #195, #40 ) ;
#71 = APPROVAL_STATUS ( 'not_yet_approved' ) ;
#72 = APPROVAL_ROLE ( '' ) ;
#73 = DATE_AND_TIME ( #30, #201 ) ;
#74 = APPROVAL_DATE_TIME ( #73, #202 ) ;
#75 = PERSON_AND_ORGANIZATION ( #195, #40 ) ;
#76 = PERSON_AND_ORGANIZATION_ROLE ( 'creator' ) ;
#77 = PERSON_AND_ORGANIZATION ( #195, #40 ) ;
#78 = PERSON_AND_ORGANIZATION_ROLE ( 'design_supplier' ) ;
#79 = SECURITY_CLASSIFICATION_LEVEL ( 'unclassified' ) ;
#80 = PERSON_AND_ORGANIZATION ( #195, #40 ) ;
#81 = PERSON_AND_ORGANIZATION_ROLE ( 'classification_officer' ) ;
#82 = DATE_AND_TIME ( #45, #206 ) ;
#83 = DATE_TIME_ROLE ( 'classification_date' ) ;
#84 = PERSON_AND_ORGANIZATION ( #195, #40 ) ;
#85 = APPROVAL_STATUS ( 'not_yet_approved' ) ;
#86 = APPROVAL_ROLE ( '' ) ;
#87 = DATE_AND_TIME ( #11, #214 ) ;
#88 = APPROVAL_DATE_TIME ( #87, #213 ) ;
#89 = ORIENTED_EDGE ( 'NONE', *, *, #223, .T. ) ;
#90 = ORIENTED_EDGE ( 'NONE', *, *, #230, .F. ) ;
#91 = ORIENTED_EDGE ( 'NONE', *, *, #222, .F. ) ;
#92 = ORIENTED_EDGE ( 'NONE', *, *, #228, .F. ) ;
#93 = ORIENTED_EDGE ( 'NONE', *, *, #217, .T. ) ;
#94 = ORIENTED_EDGE ( 'NONE', *, *, #225, .T. ) ;
#95 = ORIENTED_EDGE ( 'NONE', *, *, #211, .F. ) ;
#96 = ORIENTED_EDGE ( 'NONE', *, *, #222, .T. ) ;
#97 = ORIENTED_EDGE ( 'NONE', *, *, #227, .T. ) ;
#98 = ORIENTED_EDGE ( 'NONE', *, *, #208, .T. ) ;
#99 = ORIENTED_EDGE ( 'NONE', *, *, #224, .F. ) ;
#100 = ORIENTED_EDGE ( 'NONE', *, *, #221, .T. ) ;
#101 = ORIENTED_EDGE ( 'NONE', *, *, #211, .T. ) ;
#102 = ORIENTED_EDGE ( 'NONE', *, *, #219, .T. ) ;
#103 = ORIENTED_EDGE ( 'NONE', *, *, #225, .F. ) ;
#104 = ORIENTED_EDGE ( 'NONE', *, *, #208, .F. ) ;
#105 = CARTESIAN_POINT ( 'NONE',  ( -5.000000000000000900, 3.500000000000000400, -500.0000000000000000 ) ) ;
#106 = PLANE ( 'NONE',  #23 ) ;
#107 = LINE ( 'NONE', #124, #35 ) ;
#108 = DIRECTION ( 'NONE',  ( -0.0000000000000000000, 0.0000000000000000000, 1.000000000000000000 ) ) ;
#109 = VERTEX_POINT ( 'NONE', #164 ) ;
#110 = CARTESIAN_POINT ( 'NONE',  ( -4.999999999999999100, -3.499999999999999600, -500.0000000000000000 ) ) ;
#111 = ORIENTED_EDGE ( 'NONE', *, *, #221, .F. ) ;
#112 = DIRECTION ( 'NONE',  ( 1.000000000000000000, 0.0000000000000000000, 0.0000000000000000000 ) ) ;
#113 = DIRECTION ( 'NONE',  ( -2.478176394252581600E-016, 1.000000000000000000, 0.0000000000000000000 ) ) ;
#114 = CARTESIAN_POINT ( 'NONE',  ( -4.999999999999999100, -3.499999999999999600, 500.0000000000000000 ) ) ;
#115 = VERTEX_POINT ( 'NONE', #179 ) ;
#116 = DIRECTION ( 'NONE',  ( 1.000000000000000000, 2.478176394252581600E-016, -0.0000000000000000000 ) ) ;
#117 = VERTEX_POINT ( 'NONE', #168 ) ;
#118 = CARTESIAN_POINT ( 'NONE',  ( -5.000000000000000900, 3.500000000000000400, 500.0000000000000000 ) ) ;
#119 = ORIENTED_EDGE ( 'NONE', *, *, #217, .F. ) ;
#120 = PLANE ( 'NONE',  #31 ) ;
#121 = DIRECTION ( 'NONE',  ( 0.0000000000000000000, -1.000000000000000000, 0.0000000000000000000 ) ) ;
#122 = CARTESIAN_POINT ( 'NONE',  ( -5.000000000000000900, 3.500000000000000400, -500.0000000000000000 ) ) ;
#123 = LINE ( 'NONE', #178, #41 ) ;
#124 = CARTESIAN_POINT ( 'NONE',  ( -5.000000000000000900, 3.500000000000000400, 500.0000000000000000 ) ) ;
#125 = CARTESIAN_POINT ( 'NONE',  ( 4.999999999999999100, 3.500000000000000400, -500.0000000000000000 ) ) ;
#126 = DIRECTION ( 'NONE',  ( -0.0000000000000000000, 0.0000000000000000000, 1.000000000000000000 ) ) ;
#127 = CARTESIAN_POINT ( 'NONE',  ( 0.0000000000000000000, 0.0000000000000000000, 500.0000000000000000 ) ) ;
#128 = CARTESIAN_POINT ( 'NONE',  ( -5.000000000000000900, 3.500000000000000400, 500.0000000000000000 ) ) ;
#129 = VERTEX_POINT ( 'NONE', #134 ) ;
#130 = EDGE_LOOP ( 'NONE', ( #89, #101, #97, #98 ) ) ;
#131 = CARTESIAN_POINT ( 'NONE',  ( -5.000000000000000900, 3.500000000000000400, 500.0000000000000000 ) ) ;
#132 = LINE ( 'NONE', #131, #2 ) ;
#133 = DIRECTION ( 'NONE',  ( -0.0000000000000000000, -0.0000000000000000000, -1.000000000000000000 ) ) ;
#134 = CARTESIAN_POINT ( 'NONE',  ( -4.999999999999999100, -3.499999999999999600, 500.0000000000000000 ) ) ;
#135 = DIRECTION ( 'NONE',  ( -0.0000000000000000000, -0.0000000000000000000, -1.000000000000000000 ) ) ;
#136 = DIRECTION ( 'NONE',  ( -1.000000000000000000, -0.0000000000000000000, -0.0000000000000000000 ) ) ;
#137 = DIRECTION ( 'NONE',  ( 1.000000000000000000, 0.0000000000000000000, 0.0000000000000000000 ) ) ;
#138 = EDGE_LOOP ( 'NONE', ( #103, #91, #234, #90 ) ) ;
#139 = DIRECTION ( 'NONE',  ( 1.000000000000000000, 0.0000000000000000000, 0.0000000000000000000 ) ) ;
#140 = DIRECTION ( 'NONE',  ( -2.478176394252581600E-016, 1.000000000000000000, -0.0000000000000000000 ) ) ;
#141 = DIRECTION ( 'NONE',  ( -0.0000000000000000000, -0.0000000000000000000, -1.000000000000000000 ) ) ;
#142 = CARTESIAN_POINT ( 'NONE',  ( 0.0000000000000000000, 0.0000000000000000000, -500.0000000000000000 ) ) ;
#143 = ORIENTED_EDGE ( 'NONE', *, *, #227, .F. ) ;
#144 = PLANE ( 'NONE',  #37 ) ;
#145 = LINE ( 'NONE', #148, #42 ) ;
#146 = ORIENTED_EDGE ( 'NONE', *, *, #224, .T. ) ;
#147 = EDGE_LOOP ( 'NONE', ( #102, #119, #143, #146 ) ) ;
#148 = CARTESIAN_POINT ( 'NONE',  ( -4.999999999999999100, -3.499999999999999600, -500.0000000000000000 ) ) ;
#149 = VERTEX_POINT ( 'NONE', #184 ) ;
#150 = LINE ( 'NONE', #128, #20 ) ;
#151 = CARTESIAN_POINT ( 'NONE',  ( 5.000000000000000900, -3.499999999999999600, 500.0000000000000000 ) ) ;
#152 = DIRECTION ( 'NONE',  ( 1.000000000000000000, 0.0000000000000000000, 0.0000000000000000000 ) ) ;
#153 = DIRECTION ( 'NONE',  ( 2.478176394252581600E-016, -1.000000000000000000, 0.0000000000000000000 ) ) ;
#154 = CARTESIAN_POINT ( 'NONE',  ( 4.999999999999999100, 3.500000000000000400, 500.0000000000000000 ) ) ;
#155 = PLANE ( 'NONE',  #46 ) ;
#156 = VERTEX_POINT ( 'NONE', #110 ) ;
#157 = LINE ( 'NONE', #181, #14 ) ;
#158 = DIRECTION ( 'NONE',  ( 0.0000000000000000000, -0.0000000000000000000, -1.000000000000000000 ) ) ;
#159 = DIRECTION ( 'NONE',  ( -1.000000000000000000, -2.478176394252581600E-016, 0.0000000000000000000 ) ) ;
#160 = CARTESIAN_POINT ( 'NONE',  ( -4.999999999999999100, -3.499999999999999600, 500.0000000000000000 ) ) ;
#161 = EDGE_LOOP ( 'NONE', ( #235, #99, #95, #100 ) ) ;
#162 = LINE ( 'NONE', #105, #34 ) ;
#163 = LINE ( 'NONE', #180, #7 ) ;
#164 = CARTESIAN_POINT ( 'NONE',  ( -5.000000000000000900, 3.500000000000000400, 500.0000000000000000 ) ) ;
#165 = DIRECTION ( 'NONE',  ( -1.000000000000000000, -0.0000000000000000000, -0.0000000000000000000 ) ) ;
#166 = DIRECTION ( 'NONE',  ( -2.478176394252581600E-016, 1.000000000000000000, -0.0000000000000000000 ) ) ;
#167 = DIRECTION ( 'NONE',  ( 2.478176394252581600E-016, -1.000000000000000000, 0.0000000000000000000 ) ) ;
#168 = CARTESIAN_POINT ( 'NONE',  ( 5.000000000000000900, -3.499999999999999600, -500.0000000000000000 ) ) ;
#169 = CARTESIAN_POINT ( 'NONE',  ( -4.999999999999999100, -3.499999999999999600, 500.0000000000000000 ) ) ;
#170 = VERTEX_POINT ( 'NONE', #125 ) ;
#171 = LINE ( 'NONE', #174, #10 ) ;
#172 = DIRECTION ( 'NONE',  ( 0.0000000000000000000, 1.000000000000000000, 0.0000000000000000000 ) ) ;
#173 = DIRECTION ( 'NONE',  ( -0.0000000000000000000, -0.0000000000000000000, -1.000000000000000000 ) ) ;
#174 = CARTESIAN_POINT ( 'NONE',  ( 4.999999999999999100, 3.500000000000000400, 500.0000000000000000 ) ) ;
#175 = DIRECTION ( 'NONE',  ( 0.0000000000000000000, -0.0000000000000000000, 1.000000000000000000 ) ) ;
#176 = ORIENTED_EDGE ( 'NONE', *, *, #223, .F. ) ;
#177 = ORIENTED_EDGE ( 'NONE', *, *, #228, .T. ) ;
#178 = CARTESIAN_POINT ( 'NONE',  ( -5.000000000000000900, 3.500000000000000400, -500.0000000000000000 ) ) ;
#179 = CARTESIAN_POINT ( 'NONE',  ( 4.999999999999999100, 3.500000000000000400, 500.0000000000000000 ) ) ;
#180 = CARTESIAN_POINT ( 'NONE',  ( 4.999999999999999100, 3.500000000000000400, 500.0000000000000000 ) ) ;
#181 = CARTESIAN_POINT ( 'NONE',  ( 4.999999999999999100, 3.500000000000000400, -500.0000000000000000 ) ) ;
#182 = PLANE ( 'NONE',  #28 ) ;
#183 = PLANE ( 'NONE',  #13 ) ;
#184 = CARTESIAN_POINT ( 'NONE',  ( 5.000000000000000900, -3.499999999999999600, 500.0000000000000000 ) ) ;
#185 =( LENGTH_UNIT ( ) NAMED_UNIT ( * ) SI_UNIT ( .MILLI., .METRE. ) );
#186 = LINE ( 'NONE', #114, #8 ) ;
#187 = LINE ( 'NONE', #151, #12 ) ;
#188 = CARTESIAN_POINT ( 'NONE',  ( -5.000000000000000900, 3.500000000000000400, 500.0000000000000000 ) ) ;
#189 = DIRECTION ( 'NONE',  ( 2.478176394252581600E-016, -1.000000000000000000, 0.0000000000000000000 ) ) ;
#190 = EDGE_LOOP ( 'NONE', ( #94, #111, #176, #177 ) ) ;
#191 = EDGE_LOOP ( 'NONE', ( #96, #92, #104, #93 ) ) ;
#192 = LINE ( 'NONE', #160, #33 ) ;
#193 = VERTEX_POINT ( 'NONE', #122 ) ;
#194 = ADVANCED_BREP_SHAPE_REPRESENTATION ( 'sone3D', ( #47, #22 ), #233 ) ;
#195 = PERSON ( 'UNSPECIFIED', 'UNSPECIFIED', 'UNSPECIFIED', ('UNSPECIFIED'), ('UNSPECIFIED'), ('UNSPECIFIED') ) ;
#196 = UNCERTAINTY_MEASURE_WITH_UNIT (LENGTH_MEASURE( 1.000000000000000100E-005 ), #185, 'distance_accuracy_value', 'NONE');
#197 = PRODUCT ( 'sone3D', 'sone3D', '', ( #57 ) ) ;
#198 = CC_DESIGN_PERSON_AND_ORGANIZATION_ASSIGNMENT ( #77, #78, ( #32 ) ) ;
#199 = CC_DESIGN_DATE_AND_TIME_ASSIGNMENT ( #82, #83, ( #5 ) ) ;
#200 = CC_DESIGN_PERSON_AND_ORGANIZATION_ASSIGNMENT ( #80, #81, ( #5 ) ) ;
#201 = LOCAL_TIME ( 19, 16, 2.000000000000000000, #15 ) ;
#202 = APPROVAL ( #71, 'UNSPECIFIED' ) ;
#203 = CC_DESIGN_PERSON_AND_ORGANIZATION_ASSIGNMENT ( #75, #76, ( #32 ) ) ;
#204 = ADVANCED_FACE ( 'NONE', ( #43 ), #120, .F. ) ;
#205 = CC_DESIGN_PERSON_AND_ORGANIZATION_ASSIGNMENT ( #66, #67, ( #216 ) ) ;
#206 = LOCAL_TIME ( 19, 16, 2.000000000000000000, #17 ) ;
#207 = APPROVAL ( #62, 'UNSPECIFIED' ) ;
#208 = EDGE_CURVE ( 'NONE', #115, #109, #107, .T. ) ;
#209 = CC_DESIGN_DATE_AND_TIME_ASSIGNMENT ( #68, #69, ( #216 ) ) ;
#210 = LOCAL_TIME ( 19, 16, 2.000000000000000000, #16 ) ;
#211 = EDGE_CURVE ( 'NONE', #129, #149, #192, .T. ) ;
#212 = PRODUCT_RELATED_PRODUCT_CATEGORY ( 'detail', '', ( #197 ) ) ;
#213 = APPROVAL ( #85, 'UNSPECIFIED' ) ;
#214 = LOCAL_TIME ( 19, 16, 2.000000000000000000, #9 ) ;
#215 = ADVANCED_FACE ( 'NONE', ( #39 ), #106, .F. ) ;
#216 = PRODUCT_DEFINITION ( 'UNKNOWN', '', #32, #49 ) ;
#217 = EDGE_CURVE ( 'NONE', #115, #170, #171, .T. ) ;
#218 = CC_DESIGN_PERSON_AND_ORGANIZATION_ASSIGNMENT ( #58, #59, ( #197 ) ) ;
#219 = EDGE_CURVE ( 'NONE', #117, #170, #157, .T. ) ;
#220 = ADVANCED_FACE ( 'NONE', ( #27 ), #144, .F. ) ;
#221 = EDGE_CURVE ( 'NONE', #129, #156, #186, .T. ) ;
#222 = EDGE_CURVE ( 'NONE', #170, #193, #162, .T. ) ;
#223 = EDGE_CURVE ( 'NONE', #109, #129, #150, .T. ) ;
#224 = EDGE_CURVE ( 'NONE', #149, #117, #187, .T. ) ;
#225 = EDGE_CURVE ( 'NONE', #193, #156, #123, .T. ) ;
#226 = ADVANCED_FACE ( 'NONE', ( #29 ), #182, .F. ) ;
#227 = EDGE_CURVE ( 'NONE', #149, #115, #163, .T. ) ;
#228 = EDGE_CURVE ( 'NONE', #109, #193, #132, .T. ) ;
#229 = ADVANCED_FACE ( 'NONE', ( #24 ), #183, .T. ) ;
#230 = EDGE_CURVE ( 'NONE', #156, #117, #145, .T. ) ;
#231 = ADVANCED_FACE ( 'NONE', ( #4 ), #155, .F. ) ;
#232 = LOCAL_TIME ( 19, 16, 2.000000000000000000, #21 ) ;
#233 =( GEOMETRIC_REPRESENTATION_CONTEXT ( 3 ) GLOBAL_UNCERTAINTY_ASSIGNED_CONTEXT ( ( #196 ) ) GLOBAL_UNIT_ASSIGNED_CONTEXT ( ( #185, #50, #51 ) ) REPRESENTATION_CONTEXT ( 'NONE', 'WORKASPACE' ) );
#234 = ORIENTED_EDGE ( 'NONE', *, *, #219, .F. ) ;
#235 = ORIENTED_EDGE ( 'NONE', *, *, #230, .T. ) ;
#236 = APPLICATION_CONTEXT ( 'configuration controlled 3d designs of mechanical parts and assemblies' ) ;
#237 = APPLICATION_CONTEXT ( 'configuration controlled 3d designs of mechanical parts and assemblies' ) ;
ENDSEC;
END-ISO-10303-21;
