ISO-10303-21;
HEADER;
FILE_DESCRIPTION (( 'STEP AP203' ),
    '1' );
FILE_NAME ('sone3D.STEP',
    '2015-08-11T10:15:31',
    ( '' ),
    ( '' ),
    'SwSTEP 2.0',
    'SolidWorks 2012',
    '' );
FILE_SCHEMA (( 'CONFIG_CONTROL_DESIGN' ));
ENDSEC;

DATA;
#1 = ORGANIZATION ( 'UNSPECIFIED', 'UNSPECIFIED', '' ) ;
#2 = CC_DESIGN_APPROVAL ( #72, ( #5 ) ) ;
#3 = AXIS2_PLACEMENT_3D ( 'NONE', #154, #146, #160 ) ;
#4 = FACE_OUTER_BOUND ( 'NONE', #157, .T. ) ;
#5 = SECURITY_CLASSIFICATION ( '', '', #171 ) ;
#6 = VECTOR ( 'NONE', #225, 1000.000000000000000 ) ;
#7 = AXIS2_PLACEMENT_3D ( 'NONE', #219, #218, #199 ) ;
#8 = COORDINATED_UNIVERSAL_TIME_OFFSET ( 9, 0, .AHEAD. ) ;
#9 = VECTOR ( 'NONE', #230, 1000.000000000000000 ) ;
#10 = COORDINATED_UNIVERSAL_TIME_OFFSET ( 9, 0, .AHEAD. ) ;
#11 = COORDINATED_UNIVERSAL_TIME_OFFSET ( 9, 0, .AHEAD. ) ;
#12 = CC_DESIGN_SECURITY_CLASSIFICATION ( #5, ( #19 ) ) ;
#13 = FACE_OUTER_BOUND ( 'NONE', #170, .T. ) ;
#14 = VECTOR ( 'NONE', #222, 1000.000000000000000 ) ;
#15 = VECTOR ( 'NONE', #100, 1000.000000000000000 ) ;
#16 = CC_DESIGN_APPROVAL ( #68, ( #19 ) ) ;
#17 = CALENDAR_DATE ( 2015, 11, 8 ) ;
#18 = APPROVAL_PERSON_ORGANIZATION ( #138, #68, #140 ) ;
#19 = PRODUCT_DEFINITION_FORMATION_WITH_SPECIFIED_SOURCE ( 'ANY', '', #56, .NOT_KNOWN. ) ;
#20 = CALENDAR_DATE ( 2015, 11, 8 ) ;
#21 = FACE_OUTER_BOUND ( 'NONE', #165, .T. ) ;
#22 = AXIS2_PLACEMENT_3D ( 'NONE', #129, #234, #224 ) ;
#23 = VECTOR ( 'NONE', #208, 1000.000000000000000 ) ;
#24 = APPROVAL_PERSON_ORGANIZATION ( #169, #72, #52 ) ;
#25 = AXIS2_PLACEMENT_3D ( 'NONE', #205, #178, #116 ) ;
#26 = FACE_OUTER_BOUND ( 'NONE', #166, .T. ) ;
#27 = COORDINATED_UNIVERSAL_TIME_OFFSET ( 9, 0, .AHEAD. ) ;
#28 = FACE_OUTER_BOUND ( 'NONE', #235, .T. ) ;
#29 = VECTOR ( 'NONE', #195, 1000.000000000000000 ) ;
#30 = VECTOR ( 'NONE', #128, 1000.000000000000000 ) ;
#31 = CALENDAR_DATE ( 2015, 11, 8 ) ;
#32 = AXIS2_PLACEMENT_3D ( 'NONE', #123, #101, #104 ) ;
#33 = FACE_OUTER_BOUND ( 'NONE', #150, .T. ) ;
#34 = AXIS2_PLACEMENT_3D ( 'NONE', #108, #112, #118 ) ;
#35 = VECTOR ( 'NONE', #193, 1000.000000000000000 ) ;
#36 = AXIS2_PLACEMENT_3D ( 'NONE', #209, #161, #233 ) ;
#37 = CALENDAR_DATE ( 2015, 11, 8 ) ;
#38 = COORDINATED_UNIVERSAL_TIME_OFFSET ( 9, 0, .AHEAD. ) ;
#39 = CC_DESIGN_APPROVAL ( #88, ( #90 ) ) ;
#40 = VECTOR ( 'NONE', #186, 1000.000000000000000 ) ;
#41 = VECTOR ( 'NONE', #103, 1000.000000000000000 ) ;
#42 = VECTOR ( 'NONE', #111, 1000.000000000000000 ) ;
#43 = CALENDAR_DATE ( 2015, 11, 8 ) ;
#44 = CLOSED_SHELL ( 'NONE', ( #91, #66, #57, #61, #78, #73 ) ) ;
#45 = APPROVAL_PERSON_ORGANIZATION ( #143, #88, #145 ) ;
#46 = VECTOR ( 'NONE', #126, 1000.000000000000000 ) ;
#47 = DESIGN_CONTEXT ( 'detailed design', #237, 'design' ) ;
#48 = PRODUCT_DEFINITION_SHAPE ( 'NONE', 'NONE',  #90 ) ;
#49 = MANIFOLD_SOLID_BREP ( 'ÎÞ½ - µoµ1', #44 ) ;
#50 = APPROVAL_DATE_TIME ( #51, #72 ) ;
#51 = DATE_AND_TIME ( #37, #71 ) ;
#52 = APPROVAL_ROLE ( '' ) ;
#53 = ADVANCED_BREP_SHAPE_REPRESENTATION ( 'sone3D', ( #49, #3 ), #92 ) ;
#54 = UNCERTAINTY_MEASURE_WITH_UNIT (LENGTH_MEASURE( 1.000000000000000100E-005 ), #223, 'distance_accuracy_value', 'NONE');
#55 = PERSON ( 'UNSPECIFIED', 'UNSPECIFIED', 'UNSPECIFIED', ('UNSPECIFIED'), ('UNSPECIFIED'), ('UNSPECIFIED') ) ;
#56 = PRODUCT ( 'sone3D', 'sone3D', '', ( #134 ) ) ;
#57 = ADVANCED_FACE ( 'NONE', ( #33 ), #102, .F. ) ;
#58 = EDGE_CURVE ( 'NONE', #99, #201, #206, .T. ) ;
#59 = CC_DESIGN_PERSON_AND_ORGANIZATION_ASSIGNMENT ( #135, #141, ( #90 ) ) ;
#60 = EDGE_CURVE ( 'NONE', #201, #95, #97, .T. ) ;
#61 = ADVANCED_FACE ( 'NONE', ( #26 ), #93, .F. ) ;
#62 = EDGE_CURVE ( 'NONE', #94, #99, #115, .T. ) ;
#63 = LOCAL_TIME ( 19, 15, 31.00000000000000000, #10 ) ;
#64 = EDGE_CURVE ( 'NONE', #194, #114, #119, .T. ) ;
#65 = EDGE_CURVE ( 'NONE', #99, #114, #117, .T. ) ;
#66 = ADVANCED_FACE ( 'NONE', ( #13 ), #127, .F. ) ;
#67 = LOCAL_TIME ( 19, 15, 31.00000000000000000, #11 ) ;
#68 = APPROVAL ( #137, 'UNSPECIFIED' ) ;
#69 = EDGE_CURVE ( 'NONE', #98, #194, #226, .T. ) ;
#70 = CC_DESIGN_PERSON_AND_ORGANIZATION_ASSIGNMENT ( #130, #120, ( #19 ) ) ;
#71 = LOCAL_TIME ( 19, 15, 31.00000000000000000, #27 ) ;
#72 = APPROVAL ( #174, 'UNSPECIFIED' ) ;
#73 = ADVANCED_FACE ( 'NONE', ( #4 ), #227, .F. ) ;
#74 = EDGE_CURVE ( 'NONE', #114, #200, #232, .T. ) ;
#75 = LOCAL_TIME ( 19, 15, 31.00000000000000000, #8 ) ;
#76 = CC_DESIGN_PERSON_AND_ORGANIZATION_ASSIGNMENT ( #133, #149, ( #56 ) ) ;
#77 = EDGE_CURVE ( 'NONE', #94, #194, #121, .T. ) ;
#78 = ADVANCED_FACE ( 'NONE', ( #21 ), #231, .T. ) ;
#79 = EDGE_CURVE ( 'NONE', #201, #200, #202, .T. ) ;
#80 = EDGE_CURVE ( 'NONE', #200, #98, #125, .T. ) ;
#81 = PRODUCT_RELATED_PRODUCT_CATEGORY ( 'detail', '', ( #56 ) ) ;
#82 = CC_DESIGN_DATE_AND_TIME_ASSIGNMENT ( #181, #183, ( #5 ) ) ;
#83 = LOCAL_TIME ( 19, 15, 31.00000000000000000, #38 ) ;
#84 = EDGE_CURVE ( 'NONE', #95, #94, #124, .T. ) ;
#85 = EDGE_CURVE ( 'NONE', #95, #98, #216, .T. ) ;
#86 = CC_DESIGN_PERSON_AND_ORGANIZATION_ASSIGNMENT ( #175, #180, ( #5 ) ) ;
#87 = CC_DESIGN_DATE_AND_TIME_ASSIGNMENT ( #167, #139, ( #90 ) ) ;
#88 = APPROVAL ( #144, 'UNSPECIFIED' ) ;
#89 = CC_DESIGN_PERSON_AND_ORGANIZATION_ASSIGNMENT ( #107, #106, ( #19 ) ) ;
#90 = PRODUCT_DEFINITION ( 'UNKNOWN', '', #19, #47 ) ;
#91 = ADVANCED_FACE ( 'NONE', ( #28 ), #184, .F. ) ;
#92 =( GEOMETRIC_REPRESENTATION_CONTEXT ( 3 ) GLOBAL_UNCERTAINTY_ASSIGNED_CONTEXT ( ( #54 ) ) GLOBAL_UNIT_ASSIGNED_CONTEXT ( ( #223, #198, #197 ) ) REPRESENTATION_CONTEXT ( 'NONE', 'WORKASPACE' ) );
#93 = PLANE ( 'NONE',  #34 ) ;
#94 = VERTEX_POINT ( 'NONE', #196 ) ;
#95 = VERTEX_POINT ( 'NONE', #207 ) ;
#96 = ORIENTED_EDGE ( 'NONE', *, *, #84, .F. ) ;
#97 = LINE ( 'NONE', #105, #41 ) ;
#98 = VERTEX_POINT ( 'NONE', #212 ) ;
#99 = VERTEX_POINT ( 'NONE', #213 ) ;
#100 = DIRECTION ( 'NONE',  ( -2.891205793294678300E-016, 1.000000000000000000, -0.0000000000000000000 ) ) ;
#101 = DIRECTION ( 'NONE',  ( -1.000000000000000000, -2.891205793294678300E-016, 0.0000000000000000000 ) ) ;
#102 = PLANE ( 'NONE',  #32 ) ;
#103 = DIRECTION ( 'NONE',  ( -1.000000000000000000, -0.0000000000000000000, -0.0000000000000000000 ) ) ;
#104 = DIRECTION ( 'NONE',  ( 2.891205793294678300E-016, -1.000000000000000000, 0.0000000000000000000 ) ) ;
#105 = CARTESIAN_POINT ( 'NONE',  ( -14.99999999999999800, 2.999999999999998200, 500.0000000000000000 ) ) ;
#106 = PERSON_AND_ORGANIZATION_ROLE ( 'design_supplier' ) ;
#107 = PERSON_AND_ORGANIZATION ( #55, #1 ) ;
#108 = CARTESIAN_POINT ( 'NONE',  ( -14.99999999999999800, 2.999999999999998200, 500.0000000000000000 ) ) ;
#109 = CARTESIAN_POINT ( 'NONE',  ( -14.99999999999999600, -3.000000000000001800, -500.0000000000000000 ) ) ;
#110 = CARTESIAN_POINT ( 'NONE',  ( -14.99999999999999600, -3.000000000000001800, 500.0000000000000000 ) ) ;
#111 = DIRECTION ( 'NONE',  ( 1.000000000000000000, 0.0000000000000000000, 0.0000000000000000000 ) ) ;
#112 = DIRECTION ( 'NONE',  ( 0.0000000000000000000, -1.000000000000000000, 0.0000000000000000000 ) ) ;
#113 = ORIENTED_EDGE ( 'NONE', *, *, #85, .T. ) ;
#114 = VERTEX_POINT ( 'NONE', #214 ) ;
#115 = LINE ( 'NONE', #110, #30 ) ;
#116 = DIRECTION ( 'NONE',  ( 1.000000000000000000, 0.0000000000000000000, 0.0000000000000000000 ) ) ;
#117 = LINE ( 'NONE', #122, #46 ) ;
#118 = DIRECTION ( 'NONE',  ( 0.0000000000000000000, -0.0000000000000000000, -1.000000000000000000 ) ) ;
#119 = LINE ( 'NONE', #109, #42 ) ;
#120 = PERSON_AND_ORGANIZATION_ROLE ( 'creator' ) ;
#121 = LINE ( 'NONE', #229, #9 ) ;
#122 = CARTESIAN_POINT ( 'NONE',  ( 15.00000000000000200, -3.000000000000001800, 500.0000000000000000 ) ) ;
#123 = CARTESIAN_POINT ( 'NONE',  ( 15.00000000000000000, 2.999999999999998200, 500.0000000000000000 ) ) ;
#124 = LINE ( 'NONE', #187, #35 ) ;
#125 = LINE ( 'NONE', #185, #40 ) ;
#126 = DIRECTION ( 'NONE',  ( -0.0000000000000000000, -0.0000000000000000000, -1.000000000000000000 ) ) ;
#127 = PLANE ( 'NONE',  #22 ) ;
#128 = DIRECTION ( 'NONE',  ( 1.000000000000000000, 0.0000000000000000000, 0.0000000000000000000 ) ) ;
#129 = CARTESIAN_POINT ( 'NONE',  ( -14.99999999999999600, -3.000000000000001800, 500.0000000000000000 ) ) ;
#130 = PERSON_AND_ORGANIZATION ( #55, #1 ) ;
#131 = APPROVAL_DATE_TIME ( #132, #68 ) ;
#132 = DATE_AND_TIME ( #43, #83 ) ;
#133 = PERSON_AND_ORGANIZATION ( #55, #1 ) ;
#134 = MECHANICAL_CONTEXT ( 'NONE', #236, 'mechanical' ) ;
#135 = PERSON_AND_ORGANIZATION ( #55, #1 ) ;
#136 = DATE_AND_TIME ( #20, #67 ) ;
#137 = APPROVAL_STATUS ( 'not_yet_approved' ) ;
#138 = PERSON_AND_ORGANIZATION ( #55, #1 ) ;
#139 = DATE_TIME_ROLE ( 'creation_date' ) ;
#140 = APPROVAL_ROLE ( '' ) ;
#141 = PERSON_AND_ORGANIZATION_ROLE ( 'creator' ) ;
#142 = APPROVAL_DATE_TIME ( #136, #88 ) ;
#143 = PERSON_AND_ORGANIZATION ( #55, #1 ) ;
#144 = APPROVAL_STATUS ( 'not_yet_approved' ) ;
#145 = APPROVAL_ROLE ( '' ) ;
#146 = DIRECTION ( 'NONE',  ( 0.0000000000000000000, 0.0000000000000000000, 1.000000000000000000 ) ) ;
#147 = APPLICATION_PROTOCOL_DEFINITION ( 'international standard', 'config_control_design', 1994, #237 ) ;
#148 = SHAPE_DEFINITION_REPRESENTATION ( #48, #53 ) ;
#149 = PERSON_AND_ORGANIZATION_ROLE ( 'design_owner' ) ;
#150 = EDGE_LOOP ( 'NONE', ( #172, #156, #164, #173 ) ) ;
#151 = ORIENTED_EDGE ( 'NONE', *, *, #60, .F. ) ;
#152 = ORIENTED_EDGE ( 'NONE', *, *, #60, .T. ) ;
#153 = ORIENTED_EDGE ( 'NONE', *, *, #64, .F. ) ;
#154 = CARTESIAN_POINT ( 'NONE',  ( 0.0000000000000000000, 0.0000000000000000000, 0.0000000000000000000 ) ) ;
#155 = ORIENTED_EDGE ( 'NONE', *, *, #58, .T. ) ;
#156 = ORIENTED_EDGE ( 'NONE', *, *, #79, .F. ) ;
#157 = EDGE_LOOP ( 'NONE', ( #159, #191, #163, #153 ) ) ;
#158 = ORIENTED_EDGE ( 'NONE', *, *, #80, .T. ) ;
#159 = ORIENTED_EDGE ( 'NONE', *, *, #69, .F. ) ;
#160 = DIRECTION ( 'NONE',  ( 1.000000000000000000, 0.0000000000000000000, 0.0000000000000000000 ) ) ;
#161 = DIRECTION ( 'NONE',  ( -0.0000000000000000000, 0.0000000000000000000, 1.000000000000000000 ) ) ;
#162 = ORIENTED_EDGE ( 'NONE', *, *, #77, .T. ) ;
#163 = ORIENTED_EDGE ( 'NONE', *, *, #74, .F. ) ;
#164 = ORIENTED_EDGE ( 'NONE', *, *, #58, .F. ) ;
#165 = EDGE_LOOP ( 'NONE', ( #177, #192, #155, #152 ) ) ;
#166 = EDGE_LOOP ( 'NONE', ( #158, #182, #151, #190 ) ) ;
#167 = DATE_AND_TIME ( #31, #63 ) ;
#168 = ORIENTED_EDGE ( 'NONE', *, *, #77, .F. ) ;
#169 = PERSON_AND_ORGANIZATION ( #55, #1 ) ;
#170 = EDGE_LOOP ( 'NONE', ( #179, #189, #176, #162 ) ) ;
#171 = SECURITY_CLASSIFICATION_LEVEL ( 'unclassified' ) ;
#172 = ORIENTED_EDGE ( 'NONE', *, *, #74, .T. ) ;
#173 = ORIENTED_EDGE ( 'NONE', *, *, #65, .T. ) ;
#174 = APPROVAL_STATUS ( 'not_yet_approved' ) ;
#175 = PERSON_AND_ORGANIZATION ( #55, #1 ) ;
#176 = ORIENTED_EDGE ( 'NONE', *, *, #62, .F. ) ;
#177 = ORIENTED_EDGE ( 'NONE', *, *, #84, .T. ) ;
#178 = DIRECTION ( 'NONE',  ( -0.0000000000000000000, 0.0000000000000000000, 1.000000000000000000 ) ) ;
#179 = ORIENTED_EDGE ( 'NONE', *, *, #64, .T. ) ;
#180 = PERSON_AND_ORGANIZATION_ROLE ( 'classification_officer' ) ;
#181 = DATE_AND_TIME ( #17, #75 ) ;
#182 = ORIENTED_EDGE ( 'NONE', *, *, #85, .F. ) ;
#183 = DATE_TIME_ROLE ( 'classification_date' ) ;
#184 = PLANE ( 'NONE',  #7 ) ;
#185 = CARTESIAN_POINT ( 'NONE',  ( -14.99999999999999800, 2.999999999999998200, -500.0000000000000000 ) ) ;
#186 = DIRECTION ( 'NONE',  ( -1.000000000000000000, -0.0000000000000000000, -0.0000000000000000000 ) ) ;
#187 = CARTESIAN_POINT ( 'NONE',  ( -14.99999999999999800, 2.999999999999998200, 500.0000000000000000 ) ) ;
#188 = ORIENTED_EDGE ( 'NONE', *, *, #69, .T. ) ;
#189 = ORIENTED_EDGE ( 'NONE', *, *, #65, .F. ) ;
#190 = ORIENTED_EDGE ( 'NONE', *, *, #79, .T. ) ;
#191 = ORIENTED_EDGE ( 'NONE', *, *, #80, .F. ) ;
#192 = ORIENTED_EDGE ( 'NONE', *, *, #62, .T. ) ;
#193 = DIRECTION ( 'NONE',  ( 2.891205793294678300E-016, -1.000000000000000000, 0.0000000000000000000 ) ) ;
#194 = VERTEX_POINT ( 'NONE', #215 ) ;
#195 = DIRECTION ( 'NONE',  ( -0.0000000000000000000, -0.0000000000000000000, -1.000000000000000000 ) ) ;
#196 = CARTESIAN_POINT ( 'NONE',  ( -14.99999999999999600, -3.000000000000001800, 500.0000000000000000 ) ) ;
#197 =( NAMED_UNIT ( * ) SI_UNIT ( $, .STERADIAN. ) SOLID_ANGLE_UNIT ( ) );
#198 =( NAMED_UNIT ( * ) PLANE_ANGLE_UNIT ( ) SI_UNIT ( $, .RADIAN. ) );
#199 = DIRECTION ( 'NONE',  ( -2.891205793294678300E-016, 1.000000000000000000, 0.0000000000000000000 ) ) ;
#200 = VERTEX_POINT ( 'NONE', #210 ) ;
#201 = VERTEX_POINT ( 'NONE', #211 ) ;
#202 = LINE ( 'NONE', #204, #29 ) ;
#203 = CARTESIAN_POINT ( 'NONE',  ( 15.00000000000000000, 2.999999999999998200, 500.0000000000000000 ) ) ;
#204 = CARTESIAN_POINT ( 'NONE',  ( 15.00000000000000000, 2.999999999999998200, 500.0000000000000000 ) ) ;
#205 = CARTESIAN_POINT ( 'NONE',  ( 0.0000000000000000000, 0.0000000000000000000, 500.0000000000000000 ) ) ;
#206 = LINE ( 'NONE', #203, #15 ) ;
#207 = CARTESIAN_POINT ( 'NONE',  ( -14.99999999999999800, 2.999999999999998200, 500.0000000000000000 ) ) ;
#208 = DIRECTION ( 'NONE',  ( 2.891205793294678300E-016, -1.000000000000000000, 0.0000000000000000000 ) ) ;
#209 = CARTESIAN_POINT ( 'NONE',  ( 0.0000000000000000000, 0.0000000000000000000, -500.0000000000000000 ) ) ;
#210 = CARTESIAN_POINT ( 'NONE',  ( 15.00000000000000000, 2.999999999999998200, -500.0000000000000000 ) ) ;
#211 = CARTESIAN_POINT ( 'NONE',  ( 15.00000000000000000, 2.999999999999998200, 500.0000000000000000 ) ) ;
#212 = CARTESIAN_POINT ( 'NONE',  ( -14.99999999999999800, 2.999999999999998200, -500.0000000000000000 ) ) ;
#213 = CARTESIAN_POINT ( 'NONE',  ( 15.00000000000000200, -3.000000000000001800, 500.0000000000000000 ) ) ;
#214 = CARTESIAN_POINT ( 'NONE',  ( 15.00000000000000200, -3.000000000000001800, -500.0000000000000000 ) ) ;
#215 = CARTESIAN_POINT ( 'NONE',  ( -14.99999999999999600, -3.000000000000001800, -500.0000000000000000 ) ) ;
#216 = LINE ( 'NONE', #220, #14 ) ;
#217 = APPLICATION_PROTOCOL_DEFINITION ( 'international standard', 'config_control_design', 1994, #236 ) ;
#218 = DIRECTION ( 'NONE',  ( 1.000000000000000000, 2.891205793294678300E-016, -0.0000000000000000000 ) ) ;
#219 = CARTESIAN_POINT ( 'NONE',  ( -14.99999999999999800, 2.999999999999998200, 500.0000000000000000 ) ) ;
#220 = CARTESIAN_POINT ( 'NONE',  ( -14.99999999999999800, 2.999999999999998200, 500.0000000000000000 ) ) ;
#221 = CARTESIAN_POINT ( 'NONE',  ( -14.99999999999999800, 2.999999999999998200, -500.0000000000000000 ) ) ;
#222 = DIRECTION ( 'NONE',  ( -0.0000000000000000000, -0.0000000000000000000, -1.000000000000000000 ) ) ;
#223 =( LENGTH_UNIT ( ) NAMED_UNIT ( * ) SI_UNIT ( .MILLI., .METRE. ) );
#224 = DIRECTION ( 'NONE',  ( 0.0000000000000000000, -0.0000000000000000000, 1.000000000000000000 ) ) ;
#225 = DIRECTION ( 'NONE',  ( -2.891205793294678300E-016, 1.000000000000000000, -0.0000000000000000000 ) ) ;
#226 = LINE ( 'NONE', #221, #23 ) ;
#227 = PLANE ( 'NONE',  #36 ) ;
#228 = CARTESIAN_POINT ( 'NONE',  ( 15.00000000000000000, 2.999999999999998200, -500.0000000000000000 ) ) ;
#229 = CARTESIAN_POINT ( 'NONE',  ( -14.99999999999999600, -3.000000000000001800, 500.0000000000000000 ) ) ;
#230 = DIRECTION ( 'NONE',  ( -0.0000000000000000000, -0.0000000000000000000, -1.000000000000000000 ) ) ;
#231 = PLANE ( 'NONE',  #25 ) ;
#232 = LINE ( 'NONE', #228, #6 ) ;
#233 = DIRECTION ( 'NONE',  ( 1.000000000000000000, 0.0000000000000000000, 0.0000000000000000000 ) ) ;
#234 = DIRECTION ( 'NONE',  ( 0.0000000000000000000, 1.000000000000000000, 0.0000000000000000000 ) ) ;
#235 = EDGE_LOOP ( 'NONE', ( #188, #168, #96, #113 ) ) ;
#236 = APPLICATION_CONTEXT ( 'configuration controlled 3d designs of mechanical parts and assemblies' ) ;
#237 = APPLICATION_CONTEXT ( 'configuration controlled 3d designs of mechanical parts and assemblies' ) ;
ENDSEC;
END-ISO-10303-21;
