ISO-10303-21;
HEADER;
FILE_DESCRIPTION (( 'STEP AP203' ),
    '1' );
FILE_NAME ('sone3D.STEP',
    '2015-08-11T10:14:31',
    ( '' ),
    ( '' ),
    'SwSTEP 2.0',
    'SolidWorks 2012',
    '' );
FILE_SCHEMA (( 'CONFIG_CONTROL_DESIGN' ));
ENDSEC;

DATA;
#1 = SECURITY_CLASSIFICATION ( '', '', #205 ) ;
#2 = CALENDAR_DATE ( 2015, 11, 8 ) ;
#3 = COORDINATED_UNIVERSAL_TIME_OFFSET ( 9, 0, .AHEAD. ) ;
#4 = CALENDAR_DATE ( 2015, 11, 8 ) ;
#5 = APPROVAL_PERSON_ORGANIZATION ( #196, #108, #198 ) ;
#6 = COORDINATED_UNIVERSAL_TIME_OFFSET ( 9, 0, .AHEAD. ) ;
#7 = PRODUCT_DEFINITION_FORMATION_WITH_SPECIFIED_SOURCE ( 'ANY', '', #102, .NOT_KNOWN. ) ;
#8 = CC_DESIGN_APPROVAL ( #108, ( #7 ) ) ;
#9 = DIRECTION ( 'NONE',  ( -1.000000000000000000, -0.0000000000000000000, -0.0000000000000000000 ) ) ;
#10 = CARTESIAN_POINT ( 'NONE',  ( -12.50000000000000200, 3.000000000000000000, 500.0000000000000000 ) ) ;
#11 = CARTESIAN_POINT ( 'NONE',  ( 0.0000000000000000000, 0.0000000000000000000, -500.0000000000000000 ) ) ;
#12 = LINE ( 'NONE', #17, #94 ) ;
#13 = CARTESIAN_POINT ( 'NONE',  ( -12.50000000000000200, 3.000000000000000000, 500.0000000000000000 ) ) ;
#14 = DIRECTION ( 'NONE',  ( -0.0000000000000000000, -0.0000000000000000000, -1.000000000000000000 ) ) ;
#15 = DIRECTION ( 'NONE',  ( 2.891205793294678300E-016, -1.000000000000000000, 0.0000000000000000000 ) ) ;
#16 = VERTEX_POINT ( 'NONE', #60 ) ;
#17 = CARTESIAN_POINT ( 'NONE',  ( 12.49999999999999800, 3.000000000000000000, 500.0000000000000000 ) ) ;
#18 = LINE ( 'NONE', #10, #218 ) ;
#19 = DIRECTION ( 'NONE',  ( -0.0000000000000000000, -0.0000000000000000000, -1.000000000000000000 ) ) ;
#20 = CARTESIAN_POINT ( 'NONE',  ( -12.50000000000000000, -3.000000000000000000, 500.0000000000000000 ) ) ;
#21 = PLANE ( 'NONE',  #224 ) ;
#22 = DIRECTION ( 'NONE',  ( -0.0000000000000000000, 0.0000000000000000000, 1.000000000000000000 ) ) ;
#23 = DIRECTION ( 'NONE',  ( 1.000000000000000000, 0.0000000000000000000, 0.0000000000000000000 ) ) ;
#24 = LINE ( 'NONE', #13, #96 ) ;
#25 = VERTEX_POINT ( 'NONE', #59 ) ;
#26 = LINE ( 'NONE', #20, #93 ) ;
#27 = PLANE ( 'NONE',  #215 ) ;
#28 = LINE ( 'NONE', #33, #92 ) ;
#29 = DIRECTION ( 'NONE',  ( 1.000000000000000000, 0.0000000000000000000, 0.0000000000000000000 ) ) ;
#30 = PLANE ( 'NONE',  #223 ) ;
#31 = DIRECTION ( 'NONE',  ( 2.891205793294678300E-016, -1.000000000000000000, 0.0000000000000000000 ) ) ;
#32 = VERTEX_POINT ( 'NONE', #58 ) ;
#33 = CARTESIAN_POINT ( 'NONE',  ( -12.50000000000000200, 3.000000000000000000, -500.0000000000000000 ) ) ;
#34 = DIRECTION ( 'NONE',  ( -0.0000000000000000000, 0.0000000000000000000, 1.000000000000000000 ) ) ;
#35 = LINE ( 'NONE', #36, #221 ) ;
#36 = CARTESIAN_POINT ( 'NONE',  ( 12.49999999999999800, 3.000000000000000000, -500.0000000000000000 ) ) ;
#37 = DIRECTION ( 'NONE',  ( -2.891205793294678300E-016, 1.000000000000000000, -0.0000000000000000000 ) ) ;
#38 = LINE ( 'NONE', #39, #217 ) ;
#39 = CARTESIAN_POINT ( 'NONE',  ( 12.49999999999999800, 3.000000000000000000, 500.0000000000000000 ) ) ;
#40 = CARTESIAN_POINT ( 'NONE',  ( 0.0000000000000000000, 0.0000000000000000000, 500.0000000000000000 ) ) ;
#41 = VERTEX_POINT ( 'NONE', #57 ) ;
#42 = DIRECTION ( 'NONE',  ( 1.000000000000000000, 0.0000000000000000000, 0.0000000000000000000 ) ) ;
#43 = CARTESIAN_POINT ( 'NONE',  ( -12.50000000000000000, -3.000000000000000000, -500.0000000000000000 ) ) ;
#44 = LINE ( 'NONE', #43, #216 ) ;
#45 = CARTESIAN_POINT ( 'NONE',  ( 12.50000000000000000, -3.000000000000000000, 500.0000000000000000 ) ) ;
#46 = CARTESIAN_POINT ( 'NONE',  ( -12.50000000000000200, 3.000000000000000000, -500.0000000000000000 ) ) ;
#47 = DIRECTION ( 'NONE',  ( 0.0000000000000000000, 1.000000000000000000, 0.0000000000000000000 ) ) ;
#48 = CARTESIAN_POINT ( 'NONE',  ( -12.50000000000000000, -3.000000000000000000, 500.0000000000000000 ) ) ;
#49 = DIRECTION ( 'NONE',  ( 0.0000000000000000000, -0.0000000000000000000, 1.000000000000000000 ) ) ;
#50 = PLANE ( 'NONE',  #229 ) ;
#51 = DIRECTION ( 'NONE',  ( 2.891205793294678300E-016, -1.000000000000000000, 0.0000000000000000000 ) ) ;
#52 = DIRECTION ( 'NONE',  ( -1.000000000000000000, -2.891205793294678300E-016, 0.0000000000000000000 ) ) ;
#53 = CARTESIAN_POINT ( 'NONE',  ( 12.49999999999999800, 3.000000000000000000, 500.0000000000000000 ) ) ;
#54 = PLANE ( 'NONE',  #226 ) ;
#55 = CARTESIAN_POINT ( 'NONE',  ( -12.50000000000000000, -3.000000000000000000, -500.0000000000000000 ) ) ;
#56 = CARTESIAN_POINT ( 'NONE',  ( 12.50000000000000000, -3.000000000000000000, -500.0000000000000000 ) ) ;
#57 = CARTESIAN_POINT ( 'NONE',  ( -12.50000000000000200, 3.000000000000000000, 500.0000000000000000 ) ) ;
#58 = CARTESIAN_POINT ( 'NONE',  ( 12.49999999999999800, 3.000000000000000000, 500.0000000000000000 ) ) ;
#59 = CARTESIAN_POINT ( 'NONE',  ( -12.50000000000000000, -3.000000000000000000, 500.0000000000000000 ) ) ;
#60 = CARTESIAN_POINT ( 'NONE',  ( 12.49999999999999800, 3.000000000000000000, -500.0000000000000000 ) ) ;
#61 = ORIENTED_EDGE ( 'NONE', *, *, #130, .F. ) ;
#62 = ORIENTED_EDGE ( 'NONE', *, *, #136, .F. ) ;
#63 = ORIENTED_EDGE ( 'NONE', *, *, #131, .F. ) ;
#64 = ORIENTED_EDGE ( 'NONE', *, *, #141, .F. ) ;
#65 = ORIENTED_EDGE ( 'NONE', *, *, #132, .T. ) ;
#66 = ORIENTED_EDGE ( 'NONE', *, *, #138, .T. ) ;
#67 = ORIENTED_EDGE ( 'NONE', *, *, #141, .T. ) ;
#68 = ORIENTED_EDGE ( 'NONE', *, *, #139, .T. ) ;
#69 = ORIENTED_EDGE ( 'NONE', *, *, #140, .T. ) ;
#70 = ORIENTED_EDGE ( 'NONE', *, *, #144, .F. ) ;
#71 = ORIENTED_EDGE ( 'NONE', *, *, #133, .T. ) ;
#72 = VERTEX_POINT ( 'NONE', #56 ) ;
#73 = VERTEX_POINT ( 'NONE', #55 ) ;
#74 = LOCAL_TIME ( 19, 14, 31.00000000000000000, #237 ) ;
#75 = LOCAL_TIME ( 19, 14, 31.00000000000000000, #235 ) ;
#76 = CC_DESIGN_PERSON_AND_ORGANIZATION_ASSIGNMENT ( #192, #193, ( #79 ) ) ;
#77 = CC_DESIGN_PERSON_AND_ORGANIZATION_ASSIGNMENT ( #184, #185, ( #102 ) ) ;
#78 = ADVANCED_FACE ( 'NONE', ( #230 ), #54, .F. ) ;
#79 = PRODUCT_DEFINITION ( 'UNKNOWN', '', #7, #103 ) ;
#80 = APPROVAL ( #188, 'UNSPECIFIED' ) ;
#81 = ADVANCED_FACE ( 'NONE', ( #225 ), #50, .F. ) ;
#82 = EDGE_LOOP ( 'NONE', ( #66, #69, #68, #71 ) ) ;
#83 = EDGE_LOOP ( 'NONE', ( #124, #120, #122, #123 ) ) ;
#84 = EDGE_LOOP ( 'NONE', ( #117, #118, #121, #119 ) ) ;
#85 = ORIENTED_EDGE ( 'NONE', *, *, #139, .F. ) ;
#86 = ORIENTED_EDGE ( 'NONE', *, *, #133, .F. ) ;
#87 = EDGE_LOOP ( 'NONE', ( #125, #89, #85, #91 ) ) ;
#88 = EDGE_LOOP ( 'NONE', ( #62, #64, #63, #61 ) ) ;
#89 = ORIENTED_EDGE ( 'NONE', *, *, #132, .F. ) ;
#90 = EDGE_LOOP ( 'NONE', ( #67, #70, #86, #65 ) ) ;
#91 = ORIENTED_EDGE ( 'NONE', *, *, #145, .T. ) ;
#92 = VECTOR ( 'NONE', #31, 1000.000000000000000 ) ;
#93 = VECTOR ( 'NONE', #14, 1000.000000000000000 ) ;
#94 = VECTOR ( 'NONE', #155, 1000.000000000000000 ) ;
#95 = FACE_OUTER_BOUND ( 'NONE', #84, .T. ) ;
#96 = VECTOR ( 'NONE', #15, 1000.000000000000000 ) ;
#97 = VECTOR ( 'NONE', #158, 1000.000000000000000 ) ;
#98 = VECTOR ( 'NONE', #161, 1000.000000000000000 ) ;
#99 = VECTOR ( 'NONE', #174, 1000.000000000000000 ) ;
#100 = AXIS2_PLACEMENT_3D ( 'NONE', #179, #180, #181 ) ;
#101 = VECTOR ( 'NONE', #171, 1000.000000000000000 ) ;
#102 = PRODUCT ( 'sone3D', 'sone3D', '', ( #183 ) ) ;
#103 = DESIGN_CONTEXT ( 'detailed design', #129, 'design' ) ;
#104 = PRODUCT_DEFINITION_SHAPE ( 'NONE', 'NONE',  #79 ) ;
#105 = MANIFOLD_SOLID_BREP ( 'ÎÞ½ - µoµ1', #227 ) ;
#106 = LOCAL_TIME ( 19, 14, 31.00000000000000000, #6 ) ;
#107 = PRODUCT_RELATED_PRODUCT_CATEGORY ( 'detail', '', ( #102 ) ) ;
#108 = APPROVAL ( #197, 'UNSPECIFIED' ) ;
#109 = CC_DESIGN_PERSON_AND_ORGANIZATION_ASSIGNMENT ( #201, #202, ( #7 ) ) ;
#110 = LOCAL_TIME ( 19, 14, 31.00000000000000000, #3 ) ;
#111 = CC_DESIGN_PERSON_AND_ORGANIZATION_ASSIGNMENT ( #203, #204, ( #7 ) ) ;
#112 = LOCAL_TIME ( 19, 14, 31.00000000000000000, #146 ) ;
#113 = CC_DESIGN_DATE_AND_TIME_ASSIGNMENT ( #208, #210, ( #1 ) ) ;
#114 = CC_DESIGN_PERSON_AND_ORGANIZATION_ASSIGNMENT ( #206, #207, ( #1 ) ) ;
#115 = CC_DESIGN_DATE_AND_TIME_ASSIGNMENT ( #194, #195, ( #79 ) ) ;
#116 = APPROVAL ( #209, 'UNSPECIFIED' ) ;
#117 = ORIENTED_EDGE ( 'NONE', *, *, #136, .T. ) ;
#118 = ORIENTED_EDGE ( 'NONE', *, *, #137, .F. ) ;
#119 = ORIENTED_EDGE ( 'NONE', *, *, #144, .T. ) ;
#120 = ORIENTED_EDGE ( 'NONE', *, *, #145, .F. ) ;
#121 = ORIENTED_EDGE ( 'NONE', *, *, #138, .F. ) ;
#122 = ORIENTED_EDGE ( 'NONE', *, *, #140, .F. ) ;
#123 = ORIENTED_EDGE ( 'NONE', *, *, #137, .T. ) ;
#124 = ORIENTED_EDGE ( 'NONE', *, *, #130, .T. ) ;
#125 = ORIENTED_EDGE ( 'NONE', *, *, #131, .T. ) ;
#126 = VERTEX_POINT ( 'NONE', #46 ) ;
#127 = VERTEX_POINT ( 'NONE', #45 ) ;
#128 = APPLICATION_CONTEXT ( 'configuration controlled 3d designs of mechanical parts and assemblies' ) ;
#129 = APPLICATION_CONTEXT ( 'configuration controlled 3d designs of mechanical parts and assemblies' ) ;
#130 = EDGE_CURVE ( 'NONE', #73, #72, #44, .T. ) ;
#131 = EDGE_CURVE ( 'NONE', #72, #16, #35, .T. ) ;
#132 = EDGE_CURVE ( 'NONE', #32, #16, #38, .T. ) ;
#133 = EDGE_CURVE ( 'NONE', #32, #41, #18, .T. ) ;
#134 = ADVANCED_FACE ( 'NONE', ( #228 ), #21, .T. ) ;
#135 = ADVANCED_FACE ( 'NONE', ( #220 ), #30, .F. ) ;
#136 = EDGE_CURVE ( 'NONE', #126, #73, #28, .T. ) ;
#137 = EDGE_CURVE ( 'NONE', #25, #73, #26, .T. ) ;
#138 = EDGE_CURVE ( 'NONE', #41, #25, #24, .T. ) ;
#139 = EDGE_CURVE ( 'NONE', #127, #32, #12, .T. ) ;
#140 = EDGE_CURVE ( 'NONE', #25, #127, #156, .T. ) ;
#141 = EDGE_CURVE ( 'NONE', #16, #126, #159, .T. ) ;
#142 = ADVANCED_FACE ( 'NONE', ( #222 ), #27, .F. ) ;
#143 = ADVANCED_FACE ( 'NONE', ( #95 ), #165, .F. ) ;
#144 = EDGE_CURVE ( 'NONE', #41, #126, #169, .T. ) ;
#145 = EDGE_CURVE ( 'NONE', #127, #72, #172, .T. ) ;
#146 = COORDINATED_UNIVERSAL_TIME_OFFSET ( 9, 0, .AHEAD. ) ;
#147 = CC_DESIGN_SECURITY_CLASSIFICATION ( #1, ( #7 ) ) ;
#148 = CC_DESIGN_APPROVAL ( #116, ( #1 ) ) ;
#149 = CALENDAR_DATE ( 2015, 11, 8 ) ;
#150 = APPROVAL_PERSON_ORGANIZATION ( #213, #116, #212 ) ;
#151 = UNCERTAINTY_MEASURE_WITH_UNIT (LENGTH_MEASURE( 1.000000000000000100E-005 ), #175, 'distance_accuracy_value', 'NONE');
#152 = ADVANCED_BREP_SHAPE_REPRESENTATION ( 'sone3D', ( #105, #100 ), #154 ) ;
#153 = PERSON ( 'UNSPECIFIED', 'UNSPECIFIED', 'UNSPECIFIED', ('UNSPECIFIED'), ('UNSPECIFIED'), ('UNSPECIFIED') ) ;
#154 =( GEOMETRIC_REPRESENTATION_CONTEXT ( 3 ) GLOBAL_UNCERTAINTY_ASSIGNED_CONTEXT ( ( #151 ) ) GLOBAL_UNIT_ASSIGNED_CONTEXT ( ( #175, #176, #177 ) ) REPRESENTATION_CONTEXT ( 'NONE', 'WORKASPACE' ) );
#155 = DIRECTION ( 'NONE',  ( -2.891205793294678300E-016, 1.000000000000000000, -0.0000000000000000000 ) ) ;
#156 = LINE ( 'NONE', #157, #97 ) ;
#157 = CARTESIAN_POINT ( 'NONE',  ( -12.50000000000000000, -3.000000000000000000, 500.0000000000000000 ) ) ;
#158 = DIRECTION ( 'NONE',  ( 1.000000000000000000, 0.0000000000000000000, 0.0000000000000000000 ) ) ;
#159 = LINE ( 'NONE', #160, #98 ) ;
#160 = CARTESIAN_POINT ( 'NONE',  ( -12.50000000000000200, 3.000000000000000000, -500.0000000000000000 ) ) ;
#161 = DIRECTION ( 'NONE',  ( -1.000000000000000000, -0.0000000000000000000, -0.0000000000000000000 ) ) ;
#162 = CARTESIAN_POINT ( 'NONE',  ( -12.50000000000000200, 3.000000000000000000, 500.0000000000000000 ) ) ;
#163 = DIRECTION ( 'NONE',  ( 0.0000000000000000000, -1.000000000000000000, 0.0000000000000000000 ) ) ;
#164 = DIRECTION ( 'NONE',  ( 0.0000000000000000000, -0.0000000000000000000, -1.000000000000000000 ) ) ;
#165 = PLANE ( 'NONE',  #219 ) ;
#166 = CARTESIAN_POINT ( 'NONE',  ( -12.50000000000000200, 3.000000000000000000, 500.0000000000000000 ) ) ;
#167 = DIRECTION ( 'NONE',  ( 1.000000000000000000, 2.891205793294678300E-016, -0.0000000000000000000 ) ) ;
#168 = DIRECTION ( 'NONE',  ( -2.891205793294678300E-016, 1.000000000000000000, 0.0000000000000000000 ) ) ;
#169 = LINE ( 'NONE', #170, #101 ) ;
#170 = CARTESIAN_POINT ( 'NONE',  ( -12.50000000000000200, 3.000000000000000000, 500.0000000000000000 ) ) ;
#171 = DIRECTION ( 'NONE',  ( -0.0000000000000000000, -0.0000000000000000000, -1.000000000000000000 ) ) ;
#172 = LINE ( 'NONE', #173, #99 ) ;
#173 = CARTESIAN_POINT ( 'NONE',  ( 12.50000000000000000, -3.000000000000000000, 500.0000000000000000 ) ) ;
#174 = DIRECTION ( 'NONE',  ( -0.0000000000000000000, -0.0000000000000000000, -1.000000000000000000 ) ) ;
#175 =( LENGTH_UNIT ( ) NAMED_UNIT ( * ) SI_UNIT ( .MILLI., .METRE. ) );
#176 =( NAMED_UNIT ( * ) PLANE_ANGLE_UNIT ( ) SI_UNIT ( $, .RADIAN. ) );
#177 =( NAMED_UNIT ( * ) SI_UNIT ( $, .STERADIAN. ) SOLID_ANGLE_UNIT ( ) );
#178 = APPLICATION_PROTOCOL_DEFINITION ( 'international standard', 'config_control_design', 1994, #128 ) ;
#179 = CARTESIAN_POINT ( 'NONE',  ( 0.0000000000000000000, 0.0000000000000000000, 0.0000000000000000000 ) ) ;
#180 = DIRECTION ( 'NONE',  ( 0.0000000000000000000, 0.0000000000000000000, 1.000000000000000000 ) ) ;
#181 = DIRECTION ( 'NONE',  ( 1.000000000000000000, 0.0000000000000000000, 0.0000000000000000000 ) ) ;
#182 = SHAPE_DEFINITION_REPRESENTATION ( #104, #152 ) ;
#183 = MECHANICAL_CONTEXT ( 'NONE', #128, 'mechanical' ) ;
#184 = PERSON_AND_ORGANIZATION ( #153, #231 ) ;
#185 = PERSON_AND_ORGANIZATION_ROLE ( 'design_owner' ) ;
#186 = APPLICATION_PROTOCOL_DEFINITION ( 'international standard', 'config_control_design', 1994, #129 ) ;
#187 = PERSON_AND_ORGANIZATION ( #153, #231 ) ;
#188 = APPROVAL_STATUS ( 'not_yet_approved' ) ;
#189 = APPROVAL_ROLE ( '' ) ;
#190 = DATE_AND_TIME ( #236, #75 ) ;
#191 = APPROVAL_DATE_TIME ( #190, #80 ) ;
#192 = PERSON_AND_ORGANIZATION ( #153, #231 ) ;
#193 = PERSON_AND_ORGANIZATION_ROLE ( 'creator' ) ;
#194 = DATE_AND_TIME ( #232, #74 ) ;
#195 = DATE_TIME_ROLE ( 'creation_date' ) ;
#196 = PERSON_AND_ORGANIZATION ( #153, #231 ) ;
#197 = APPROVAL_STATUS ( 'not_yet_approved' ) ;
#198 = APPROVAL_ROLE ( '' ) ;
#199 = DATE_AND_TIME ( #4, #106 ) ;
#200 = APPROVAL_DATE_TIME ( #199, #108 ) ;
#201 = PERSON_AND_ORGANIZATION ( #153, #231 ) ;
#202 = PERSON_AND_ORGANIZATION_ROLE ( 'creator' ) ;
#203 = PERSON_AND_ORGANIZATION ( #153, #231 ) ;
#204 = PERSON_AND_ORGANIZATION_ROLE ( 'design_supplier' ) ;
#205 = SECURITY_CLASSIFICATION_LEVEL ( 'unclassified' ) ;
#206 = PERSON_AND_ORGANIZATION ( #153, #231 ) ;
#207 = PERSON_AND_ORGANIZATION_ROLE ( 'classification_officer' ) ;
#208 = DATE_AND_TIME ( #2, #110 ) ;
#209 = APPROVAL_STATUS ( 'not_yet_approved' ) ;
#210 = DATE_TIME_ROLE ( 'classification_date' ) ;
#211 = DATE_AND_TIME ( #149, #112 ) ;
#212 = APPROVAL_ROLE ( '' ) ;
#213 = PERSON_AND_ORGANIZATION ( #153, #231 ) ;
#214 = APPROVAL_DATE_TIME ( #211, #116 ) ;
#215 = AXIS2_PLACEMENT_3D ( 'NONE', #162, #163, #164 ) ;
#216 = VECTOR ( 'NONE', #42, 1000.000000000000000 ) ;
#217 = VECTOR ( 'NONE', #19, 1000.000000000000000 ) ;
#218 = VECTOR ( 'NONE', #9, 1000.000000000000000 ) ;
#219 = AXIS2_PLACEMENT_3D ( 'NONE', #166, #167, #168 ) ;
#220 = FACE_OUTER_BOUND ( 'NONE', #88, .T. ) ;
#221 = VECTOR ( 'NONE', #37, 1000.000000000000000 ) ;
#222 = FACE_OUTER_BOUND ( 'NONE', #90, .T. ) ;
#223 = AXIS2_PLACEMENT_3D ( 'NONE', #11, #34, #29 ) ;
#224 = AXIS2_PLACEMENT_3D ( 'NONE', #40, #22, #23 ) ;
#225 = FACE_OUTER_BOUND ( 'NONE', #83, .T. ) ;
#226 = AXIS2_PLACEMENT_3D ( 'NONE', #53, #52, #51 ) ;
#227 = CLOSED_SHELL ( 'NONE', ( #143, #81, #78, #142, #134, #135 ) ) ;
#228 = FACE_OUTER_BOUND ( 'NONE', #82, .T. ) ;
#229 = AXIS2_PLACEMENT_3D ( 'NONE', #48, #47, #49 ) ;
#230 = FACE_OUTER_BOUND ( 'NONE', #87, .T. ) ;
#231 = ORGANIZATION ( 'UNSPECIFIED', 'UNSPECIFIED', '' ) ;
#232 = CALENDAR_DATE ( 2015, 11, 8 ) ;
#233 = CC_DESIGN_APPROVAL ( #80, ( #79 ) ) ;
#234 = APPROVAL_PERSON_ORGANIZATION ( #187, #80, #189 ) ;
#235 = COORDINATED_UNIVERSAL_TIME_OFFSET ( 9, 0, .AHEAD. ) ;
#236 = CALENDAR_DATE ( 2015, 11, 8 ) ;
#237 = COORDINATED_UNIVERSAL_TIME_OFFSET ( 9, 0, .AHEAD. ) ;
ENDSEC;
END-ISO-10303-21;
