ISO-10303-21;
HEADER;
FILE_DESCRIPTION (( 'STEP AP203' ),
    '1' );
FILE_NAME ('sone3D.STEP',
    '2015-08-11T10:14:12',
    ( '' ),
    ( '' ),
    'SwSTEP 2.0',
    'SolidWorks 2012',
    '' );
FILE_SCHEMA (( 'CONFIG_CONTROL_DESIGN' ));
ENDSEC;

DATA;
#1 = PERSON ( 'UNSPECIFIED', 'UNSPECIFIED', 'UNSPECIFIED', ('UNSPECIFIED'), ('UNSPECIFIED'), ('UNSPECIFIED') ) ;
#2 = ADVANCED_BREP_SHAPE_REPRESENTATION ( 'sone3D', ( #235, #9 ), #68 ) ;
#3 = UNCERTAINTY_MEASURE_WITH_UNIT (LENGTH_MEASURE( 1.000000000000000100E-005 ), #160, 'distance_accuracy_value', 'NONE');
#4 = AXIS2_PLACEMENT_3D ( 'NONE', #154, #155, #156 ) ;
#5 = VECTOR ( 'NONE', #136, 1000.000000000000000 ) ;
#6 = AXIS2_PLACEMENT_3D ( 'NONE', #150, #151, #152 ) ;
#7 = FACE_OUTER_BOUND ( 'NONE', #27, .T. ) ;
#8 = FACE_OUTER_BOUND ( 'NONE', #28, .T. ) ;
#9 = AXIS2_PLACEMENT_3D ( 'NONE', #164, #165, #166 ) ;
#10 = VECTOR ( 'NONE', #144, 1000.000000000000000 ) ;
#11 = VECTOR ( 'NONE', #134, 1000.000000000000000 ) ;
#12 = VECTOR ( 'NONE', #159, 1000.000000000000000 ) ;
#13 = FACE_OUTER_BOUND ( 'NONE', #30, .T. ) ;
#14 = AXIS2_PLACEMENT_3D ( 'NONE', #146, #147, #148 ) ;
#15 = CALENDAR_DATE ( 2015, 11, 8 ) ;
#16 = CC_DESIGN_SECURITY_CLASSIFICATION ( #18, ( #233 ) ) ;
#17 = CALENDAR_DATE ( 2015, 11, 8 ) ;
#18 = SECURITY_CLASSIFICATION ( '', '', #190 ) ;
#19 = CC_DESIGN_APPROVAL ( #46, ( #233 ) ) ;
#20 = COORDINATED_UNIVERSAL_TIME_OFFSET ( 9, 0, .AHEAD. ) ;
#21 = CALENDAR_DATE ( 2015, 11, 8 ) ;
#22 = APPROVAL_PERSON_ORGANIZATION ( #195, #64, #197 ) ;
#23 = CC_DESIGN_APPROVAL ( #64, ( #18 ) ) ;
#24 = COORDINATED_UNIVERSAL_TIME_OFFSET ( 9, 0, .AHEAD. ) ;
#25 = PRODUCT ( 'sone3D', 'sone3D', '', ( #168 ) ) ;
#26 = EDGE_LOOP ( 'NONE', ( #38, #40, #70, #69 ) ) ;
#27 = EDGE_LOOP ( 'NONE', ( #81, #82, #83, #80 ) ) ;
#28 = EDGE_LOOP ( 'NONE', ( #77, #78, #79, #75 ) ) ;
#29 = EDGE_LOOP ( 'NONE', ( #32, #74, #35, #76 ) ) ;
#30 = EDGE_LOOP ( 'NONE', ( #39, #37, #33, #36 ) ) ;
#31 = EDGE_LOOP ( 'NONE', ( #71, #72, #73, #34 ) ) ;
#32 = ORIENTED_EDGE ( 'NONE', *, *, #44, .T. ) ;
#33 = ORIENTED_EDGE ( 'NONE', *, *, #218, .F. ) ;
#34 = ORIENTED_EDGE ( 'NONE', *, *, #217, .T. ) ;
#35 = ORIENTED_EDGE ( 'NONE', *, *, #52, .F. ) ;
#36 = ORIENTED_EDGE ( 'NONE', *, *, #53, .T. ) ;
#37 = ORIENTED_EDGE ( 'NONE', *, *, #58, .F. ) ;
#38 = ORIENTED_EDGE ( 'NONE', *, *, #57, .T. ) ;
#39 = ORIENTED_EDGE ( 'NONE', *, *, #224, .T. ) ;
#40 = ORIENTED_EDGE ( 'NONE', *, *, #53, .F. ) ;
#41 = LOCAL_TIME ( 19, 14, 12.00000000000000000, #228 ) ;
#42 = APPROVAL ( #173, 'UNSPECIFIED' ) ;
#43 = EDGE_CURVE ( 'NONE', #90, #91, #92, .T. ) ;
#44 = EDGE_CURVE ( 'NONE', #86, #90, #96, .T. ) ;
#45 = LOCAL_TIME ( 19, 14, 12.00000000000000000, #24 ) ;
#46 = APPROVAL ( #182, 'UNSPECIFIED' ) ;
#47 = CC_DESIGN_PERSON_AND_ORGANIZATION_ASSIGNMENT ( #177, #178, ( #51 ) ) ;
#48 = CC_DESIGN_PERSON_AND_ORGANIZATION_ASSIGNMENT ( #169, #170, ( #25 ) ) ;
#49 = LOCAL_TIME ( 19, 14, 12.00000000000000000, #232 ) ;
#50 = CC_DESIGN_DATE_AND_TIME_ASSIGNMENT ( #179, #180, ( #51 ) ) ;
#51 = PRODUCT_DEFINITION ( 'UNKNOWN', '', #233, #237 ) ;
#52 = EDGE_CURVE ( 'NONE', #89, #85, #99, .T. ) ;
#53 = EDGE_CURVE ( 'NONE', #88, #84, #102, .T. ) ;
#54 = EDGE_CURVE ( 'NONE', #87, #88, #105, .T. ) ;
#55 = CC_DESIGN_PERSON_AND_ORGANIZATION_ASSIGNMENT ( #188, #189, ( #233 ) ) ;
#56 = EDGE_CURVE ( 'NONE', #87, #91, #108, .T. ) ;
#57 = EDGE_CURVE ( 'NONE', #91, #84, #111, .T. ) ;
#58 = EDGE_CURVE ( 'NONE', #89, #86, #114, .T. ) ;
#59 = CC_DESIGN_DATE_AND_TIME_ASSIGNMENT ( #193, #194, ( #18 ) ) ;
#60 = PRODUCT_RELATED_PRODUCT_CATEGORY ( 'detail', '', ( #25 ) ) ;
#61 = CC_DESIGN_PERSON_AND_ORGANIZATION_ASSIGNMENT ( #186, #187, ( #233 ) ) ;
#62 = LOCAL_TIME ( 19, 14, 12.00000000000000000, #234 ) ;
#63 = CC_DESIGN_PERSON_AND_ORGANIZATION_ASSIGNMENT ( #191, #192, ( #18 ) ) ;
#64 = APPROVAL ( #196, 'UNSPECIFIED' ) ;
#65 = LOCAL_TIME ( 19, 14, 12.00000000000000000, #20 ) ;
#66 = APPLICATION_CONTEXT ( 'configuration controlled 3d designs of mechanical parts and assemblies' ) ;
#67 = APPLICATION_CONTEXT ( 'configuration controlled 3d designs of mechanical parts and assemblies' ) ;
#68 =( GEOMETRIC_REPRESENTATION_CONTEXT ( 3 ) GLOBAL_UNCERTAINTY_ASSIGNED_CONTEXT ( ( #3 ) ) GLOBAL_UNIT_ASSIGNED_CONTEXT ( ( #160, #161, #162 ) ) REPRESENTATION_CONTEXT ( 'NONE', 'WORKASPACE' ) );
#69 = ORIENTED_EDGE ( 'NONE', *, *, #56, .T. ) ;
#70 = ORIENTED_EDGE ( 'NONE', *, *, #54, .F. ) ;
#71 = ORIENTED_EDGE ( 'NONE', *, *, #43, .T. ) ;
#72 = ORIENTED_EDGE ( 'NONE', *, *, #56, .F. ) ;
#73 = ORIENTED_EDGE ( 'NONE', *, *, #220, .F. ) ;
#74 = ORIENTED_EDGE ( 'NONE', *, *, #217, .F. ) ;
#75 = ORIENTED_EDGE ( 'NONE', *, *, #52, .T. ) ;
#76 = ORIENTED_EDGE ( 'NONE', *, *, #58, .T. ) ;
#77 = ORIENTED_EDGE ( 'NONE', *, *, #220, .T. ) ;
#78 = ORIENTED_EDGE ( 'NONE', *, *, #54, .T. ) ;
#79 = ORIENTED_EDGE ( 'NONE', *, *, #218, .T. ) ;
#80 = ORIENTED_EDGE ( 'NONE', *, *, #57, .F. ) ;
#81 = ORIENTED_EDGE ( 'NONE', *, *, #43, .F. ) ;
#82 = ORIENTED_EDGE ( 'NONE', *, *, #44, .F. ) ;
#83 = ORIENTED_EDGE ( 'NONE', *, *, #224, .F. ) ;
#84 = VERTEX_POINT ( 'NONE', #95 ) ;
#85 = VERTEX_POINT ( 'NONE', #117 ) ;
#86 = VERTEX_POINT ( 'NONE', #118 ) ;
#87 = VERTEX_POINT ( 'NONE', #119 ) ;
#88 = VERTEX_POINT ( 'NONE', #120 ) ;
#89 = VERTEX_POINT ( 'NONE', #121 ) ;
#90 = VERTEX_POINT ( 'NONE', #122 ) ;
#91 = VERTEX_POINT ( 'NONE', #123 ) ;
#92 = LINE ( 'NONE', #93, #203 ) ;
#93 = CARTESIAN_POINT ( 'NONE',  ( -10.00000000000000000, 3.000000000000000400, -500.0000000000000000 ) ) ;
#94 = DIRECTION ( 'NONE',  ( 2.891205793294678300E-016, -1.000000000000000000, 0.0000000000000000000 ) ) ;
#95 = CARTESIAN_POINT ( 'NONE',  ( 9.999999999999998200, -2.999999999999999600, -500.0000000000000000 ) ) ;
#96 = LINE ( 'NONE', #97, #205 ) ;
#97 = CARTESIAN_POINT ( 'NONE',  ( -10.00000000000000000, 3.000000000000000400, -500.0000000000000000 ) ) ;
#98 = DIRECTION ( 'NONE',  ( -1.000000000000000000, -0.0000000000000000000, -0.0000000000000000000 ) ) ;
#99 = LINE ( 'NONE', #100, #206 ) ;
#100 = CARTESIAN_POINT ( 'NONE',  ( -10.00000000000000000, 3.000000000000000400, 500.0000000000000000 ) ) ;
#101 = DIRECTION ( 'NONE',  ( -1.000000000000000000, -0.0000000000000000000, -0.0000000000000000000 ) ) ;
#102 = LINE ( 'NONE', #103, #210 ) ;
#103 = CARTESIAN_POINT ( 'NONE',  ( 9.999999999999998200, -2.999999999999999600, 500.0000000000000000 ) ) ;
#104 = DIRECTION ( 'NONE',  ( -0.0000000000000000000, -0.0000000000000000000, -1.000000000000000000 ) ) ;
#105 = LINE ( 'NONE', #106, #204 ) ;
#106 = CARTESIAN_POINT ( 'NONE',  ( -9.999999999999998200, -2.999999999999999600, 500.0000000000000000 ) ) ;
#107 = DIRECTION ( 'NONE',  ( 1.000000000000000000, 0.0000000000000000000, 0.0000000000000000000 ) ) ;
#108 = LINE ( 'NONE', #109, #208 ) ;
#109 = CARTESIAN_POINT ( 'NONE',  ( -9.999999999999998200, -2.999999999999999600, 500.0000000000000000 ) ) ;
#110 = DIRECTION ( 'NONE',  ( -0.0000000000000000000, -0.0000000000000000000, -1.000000000000000000 ) ) ;
#111 = LINE ( 'NONE', #112, #202 ) ;
#112 = CARTESIAN_POINT ( 'NONE',  ( -9.999999999999998200, -2.999999999999999600, -500.0000000000000000 ) ) ;
#113 = DIRECTION ( 'NONE',  ( 1.000000000000000000, 0.0000000000000000000, 0.0000000000000000000 ) ) ;
#114 = LINE ( 'NONE', #115, #201 ) ;
#115 = CARTESIAN_POINT ( 'NONE',  ( 9.999999999999998200, 3.000000000000000400, 500.0000000000000000 ) ) ;
#116 = DIRECTION ( 'NONE',  ( -0.0000000000000000000, -0.0000000000000000000, -1.000000000000000000 ) ) ;
#117 = CARTESIAN_POINT ( 'NONE',  ( -10.00000000000000000, 3.000000000000000400, 500.0000000000000000 ) ) ;
#118 = CARTESIAN_POINT ( 'NONE',  ( 9.999999999999998200, 3.000000000000000400, -500.0000000000000000 ) ) ;
#119 = CARTESIAN_POINT ( 'NONE',  ( -9.999999999999998200, -2.999999999999999600, 500.0000000000000000 ) ) ;
#120 = CARTESIAN_POINT ( 'NONE',  ( 9.999999999999998200, -2.999999999999999600, 500.0000000000000000 ) ) ;
#121 = CARTESIAN_POINT ( 'NONE',  ( 9.999999999999998200, 3.000000000000000400, 500.0000000000000000 ) ) ;
#122 = CARTESIAN_POINT ( 'NONE',  ( -10.00000000000000000, 3.000000000000000400, -500.0000000000000000 ) ) ;
#123 = CARTESIAN_POINT ( 'NONE',  ( -9.999999999999998200, -2.999999999999999600, -500.0000000000000000 ) ) ;
#124 = PLANE ( 'NONE',  #213 ) ;
#125 = CARTESIAN_POINT ( 'NONE',  ( -10.00000000000000000, 3.000000000000000400, 500.0000000000000000 ) ) ;
#126 = DIRECTION ( 'NONE',  ( 1.000000000000000000, 2.891205793294678300E-016, -0.0000000000000000000 ) ) ;
#127 = DIRECTION ( 'NONE',  ( -2.891205793294678300E-016, 1.000000000000000000, 0.0000000000000000000 ) ) ;
#128 = PLANE ( 'NONE',  #212 ) ;
#129 = CARTESIAN_POINT ( 'NONE',  ( -10.00000000000000000, 3.000000000000000400, 500.0000000000000000 ) ) ;
#130 = DIRECTION ( 'NONE',  ( 0.0000000000000000000, -1.000000000000000000, 0.0000000000000000000 ) ) ;
#131 = DIRECTION ( 'NONE',  ( 0.0000000000000000000, -0.0000000000000000000, -1.000000000000000000 ) ) ;
#132 = LINE ( 'NONE', #133, #11 ) ;
#133 = CARTESIAN_POINT ( 'NONE',  ( -10.00000000000000000, 3.000000000000000400, 500.0000000000000000 ) ) ;
#134 = DIRECTION ( 'NONE',  ( -0.0000000000000000000, -0.0000000000000000000, -1.000000000000000000 ) ) ;
#135 = LINE ( 'NONE', #137, #5 ) ;
#136 = DIRECTION ( 'NONE',  ( -0.0000000000000000000, 1.000000000000000000, -0.0000000000000000000 ) ) ;
#137 = CARTESIAN_POINT ( 'NONE',  ( 9.999999999999998200, 3.000000000000000400, 500.0000000000000000 ) ) ;
#138 = PLANE ( 'NONE',  #207 ) ;
#139 = DIRECTION ( 'NONE',  ( 0.0000000000000000000, 1.000000000000000000, 0.0000000000000000000 ) ) ;
#140 = CARTESIAN_POINT ( 'NONE',  ( -9.999999999999998200, -2.999999999999999600, 500.0000000000000000 ) ) ;
#141 = DIRECTION ( 'NONE',  ( 0.0000000000000000000, -0.0000000000000000000, 1.000000000000000000 ) ) ;
#142 = LINE ( 'NONE', #143, #10 ) ;
#143 = CARTESIAN_POINT ( 'NONE',  ( -10.00000000000000000, 3.000000000000000400, 500.0000000000000000 ) ) ;
#144 = DIRECTION ( 'NONE',  ( 2.891205793294678300E-016, -1.000000000000000000, 0.0000000000000000000 ) ) ;
#145 = PLANE ( 'NONE',  #14 ) ;
#146 = CARTESIAN_POINT ( 'NONE',  ( 9.999999999999998200, 3.000000000000000400, 500.0000000000000000 ) ) ;
#147 = DIRECTION ( 'NONE',  ( -1.000000000000000000, 0.0000000000000000000, 0.0000000000000000000 ) ) ;
#148 = DIRECTION ( 'NONE',  ( 0.0000000000000000000, 0.0000000000000000000, 1.000000000000000000 ) ) ;
#149 = PLANE ( 'NONE',  #6 ) ;
#150 = CARTESIAN_POINT ( 'NONE',  ( 0.0000000000000000000, 0.0000000000000000000, -500.0000000000000000 ) ) ;
#151 = DIRECTION ( 'NONE',  ( -0.0000000000000000000, 0.0000000000000000000, 1.000000000000000000 ) ) ;
#152 = DIRECTION ( 'NONE',  ( 1.000000000000000000, 0.0000000000000000000, 0.0000000000000000000 ) ) ;
#153 = PLANE ( 'NONE',  #4 ) ;
#154 = CARTESIAN_POINT ( 'NONE',  ( 0.0000000000000000000, 0.0000000000000000000, 500.0000000000000000 ) ) ;
#155 = DIRECTION ( 'NONE',  ( -0.0000000000000000000, 0.0000000000000000000, 1.000000000000000000 ) ) ;
#156 = DIRECTION ( 'NONE',  ( 1.000000000000000000, 0.0000000000000000000, 0.0000000000000000000 ) ) ;
#157 = LINE ( 'NONE', #158, #12 ) ;
#158 = CARTESIAN_POINT ( 'NONE',  ( 9.999999999999998200, 3.000000000000000400, -500.0000000000000000 ) ) ;
#159 = DIRECTION ( 'NONE',  ( -0.0000000000000000000, 1.000000000000000000, -0.0000000000000000000 ) ) ;
#160 =( LENGTH_UNIT ( ) NAMED_UNIT ( * ) SI_UNIT ( .MILLI., .METRE. ) );
#161 =( NAMED_UNIT ( * ) PLANE_ANGLE_UNIT ( ) SI_UNIT ( $, .RADIAN. ) );
#162 =( NAMED_UNIT ( * ) SI_UNIT ( $, .STERADIAN. ) SOLID_ANGLE_UNIT ( ) );
#163 = APPLICATION_PROTOCOL_DEFINITION ( 'international standard', 'config_control_design', 1994, #66 ) ;
#164 = CARTESIAN_POINT ( 'NONE',  ( 0.0000000000000000000, 0.0000000000000000000, 0.0000000000000000000 ) ) ;
#165 = DIRECTION ( 'NONE',  ( 0.0000000000000000000, 0.0000000000000000000, 1.000000000000000000 ) ) ;
#166 = DIRECTION ( 'NONE',  ( 1.000000000000000000, 0.0000000000000000000, 0.0000000000000000000 ) ) ;
#167 = SHAPE_DEFINITION_REPRESENTATION ( #236, #2 ) ;
#168 = MECHANICAL_CONTEXT ( 'NONE', #66, 'mechanical' ) ;
#169 = PERSON_AND_ORGANIZATION ( #1, #229 ) ;
#170 = PERSON_AND_ORGANIZATION_ROLE ( 'design_owner' ) ;
#171 = APPLICATION_PROTOCOL_DEFINITION ( 'international standard', 'config_control_design', 1994, #67 ) ;
#172 = PERSON_AND_ORGANIZATION ( #1, #229 ) ;
#173 = APPROVAL_STATUS ( 'not_yet_approved' ) ;
#174 = APPROVAL_ROLE ( '' ) ;
#175 = DATE_AND_TIME ( #230, #62 ) ;
#176 = APPROVAL_DATE_TIME ( #175, #42 ) ;
#177 = PERSON_AND_ORGANIZATION ( #1, #229 ) ;
#178 = PERSON_AND_ORGANIZATION_ROLE ( 'creator' ) ;
#179 = DATE_AND_TIME ( #226, #41 ) ;
#180 = DATE_TIME_ROLE ( 'creation_date' ) ;
#181 = PERSON_AND_ORGANIZATION ( #1, #229 ) ;
#182 = APPROVAL_STATUS ( 'not_yet_approved' ) ;
#183 = APPROVAL_ROLE ( '' ) ;
#184 = DATE_AND_TIME ( #21, #49 ) ;
#185 = APPROVAL_DATE_TIME ( #184, #46 ) ;
#186 = PERSON_AND_ORGANIZATION ( #1, #229 ) ;
#187 = PERSON_AND_ORGANIZATION_ROLE ( 'creator' ) ;
#188 = PERSON_AND_ORGANIZATION ( #1, #229 ) ;
#189 = PERSON_AND_ORGANIZATION_ROLE ( 'design_supplier' ) ;
#190 = SECURITY_CLASSIFICATION_LEVEL ( 'unclassified' ) ;
#191 = PERSON_AND_ORGANIZATION ( #1, #229 ) ;
#192 = PERSON_AND_ORGANIZATION_ROLE ( 'classification_officer' ) ;
#193 = DATE_AND_TIME ( #15, #45 ) ;
#194 = DATE_TIME_ROLE ( 'classification_date' ) ;
#195 = PERSON_AND_ORGANIZATION ( #1, #229 ) ;
#196 = APPROVAL_STATUS ( 'not_yet_approved' ) ;
#197 = APPROVAL_ROLE ( '' ) ;
#198 = DATE_AND_TIME ( #17, #65 ) ;
#199 = APPROVAL_DATE_TIME ( #198, #64 ) ;
#200 = FACE_OUTER_BOUND ( 'NONE', #31, .T. ) ;
#201 = VECTOR ( 'NONE', #116, 1000.000000000000000 ) ;
#202 = VECTOR ( 'NONE', #113, 1000.000000000000000 ) ;
#203 = VECTOR ( 'NONE', #94, 1000.000000000000000 ) ;
#204 = VECTOR ( 'NONE', #107, 1000.000000000000000 ) ;
#205 = VECTOR ( 'NONE', #98, 1000.000000000000000 ) ;
#206 = VECTOR ( 'NONE', #101, 1000.000000000000000 ) ;
#207 = AXIS2_PLACEMENT_3D ( 'NONE', #140, #139, #141 ) ;
#208 = VECTOR ( 'NONE', #110, 1000.000000000000000 ) ;
#209 = FACE_OUTER_BOUND ( 'NONE', #26, .T. ) ;
#210 = VECTOR ( 'NONE', #104, 1000.000000000000000 ) ;
#211 = FACE_OUTER_BOUND ( 'NONE', #29, .T. ) ;
#212 = AXIS2_PLACEMENT_3D ( 'NONE', #129, #130, #131 ) ;
#213 = AXIS2_PLACEMENT_3D ( 'NONE', #125, #126, #127 ) ;
#214 = CLOSED_SHELL ( 'NONE', ( #215, #219, #221, #216, #223, #222 ) ) ;
#215 = ADVANCED_FACE ( 'NONE', ( #200 ), #124, .F. ) ;
#216 = ADVANCED_FACE ( 'NONE', ( #211 ), #128, .F. ) ;
#217 = EDGE_CURVE ( 'NONE', #85, #90, #132, .T. ) ;
#218 = EDGE_CURVE ( 'NONE', #88, #89, #135, .T. ) ;
#219 = ADVANCED_FACE ( 'NONE', ( #209 ), #138, .F. ) ;
#220 = EDGE_CURVE ( 'NONE', #85, #87, #142, .T. ) ;
#221 = ADVANCED_FACE ( 'NONE', ( #13 ), #145, .F. ) ;
#222 = ADVANCED_FACE ( 'NONE', ( #7 ), #149, .F. ) ;
#223 = ADVANCED_FACE ( 'NONE', ( #8 ), #153, .T. ) ;
#224 = EDGE_CURVE ( 'NONE', #84, #86, #157, .T. ) ;
#225 = CC_DESIGN_APPROVAL ( #42, ( #51 ) ) ;
#226 = CALENDAR_DATE ( 2015, 11, 8 ) ;
#227 = APPROVAL_PERSON_ORGANIZATION ( #172, #42, #174 ) ;
#228 = COORDINATED_UNIVERSAL_TIME_OFFSET ( 9, 0, .AHEAD. ) ;
#229 = ORGANIZATION ( 'UNSPECIFIED', 'UNSPECIFIED', '' ) ;
#230 = CALENDAR_DATE ( 2015, 11, 8 ) ;
#231 = APPROVAL_PERSON_ORGANIZATION ( #181, #46, #183 ) ;
#232 = COORDINATED_UNIVERSAL_TIME_OFFSET ( 9, 0, .AHEAD. ) ;
#233 = PRODUCT_DEFINITION_FORMATION_WITH_SPECIFIED_SOURCE ( 'ANY', '', #25, .NOT_KNOWN. ) ;
#234 = COORDINATED_UNIVERSAL_TIME_OFFSET ( 9, 0, .AHEAD. ) ;
#235 = MANIFOLD_SOLID_BREP ( 'ÎÞ½ - µoµ1', #214 ) ;
#236 = PRODUCT_DEFINITION_SHAPE ( 'NONE', 'NONE',  #51 ) ;
#237 = DESIGN_CONTEXT ( 'detailed design', #67, 'design' ) ;
ENDSEC;
END-ISO-10303-21;
