ISO-10303-21;
HEADER;
FILE_DESCRIPTION (( 'STEP AP203' ),
    '1' );
FILE_NAME ('sone3D.STEP',
    '2015-08-11T10:13:53',
    ( '' ),
    ( '' ),
    'SwSTEP 2.0',
    'SolidWorks 2012',
    '' );
FILE_SCHEMA (( 'CONFIG_CONTROL_DESIGN' ));
ENDSEC;

DATA;
#1 = CARTESIAN_POINT ( 'NONE',  ( 0.0000000000000000000, 0.0000000000000000000, 0.0000000000000000000 ) ) ;
#2 = DIRECTION ( 'NONE',  ( 0.0000000000000000000, 0.0000000000000000000, 1.000000000000000000 ) ) ;
#3 = APPROVAL ( #210, 'UNSPECIFIED' ) ;
#4 = PRODUCT_RELATED_PRODUCT_CATEGORY ( 'detail', '', ( #18 ) ) ;
#5 = LOCAL_TIME ( 19, 13, 53.00000000000000000, #55 ) ;
#6 = LOCAL_TIME ( 19, 13, 53.00000000000000000, #30 ) ;
#7 = APPROVAL ( #224, 'UNSPECIFIED' ) ;
#8 = CC_DESIGN_DATE_AND_TIME_ASSIGNMENT ( #221, #222, ( #47 ) ) ;
#9 = CC_DESIGN_DATE_AND_TIME_ASSIGNMENT ( #207, #208, ( #59 ) ) ;
#10 = LOCAL_TIME ( 19, 13, 53.00000000000000000, #23 ) ;
#11 = CC_DESIGN_PERSON_AND_ORGANIZATION_ASSIGNMENT ( #214, #215, ( #28 ) ) ;
#12 = LOCAL_TIME ( 19, 13, 53.00000000000000000, #40 ) ;
#13 = CC_DESIGN_PERSON_AND_ORGANIZATION_ASSIGNMENT ( #219, #220, ( #47 ) ) ;
#14 = CC_DESIGN_PERSON_AND_ORGANIZATION_ASSIGNMENT ( #216, #217, ( #28 ) ) ;
#15 = PERSON ( 'UNSPECIFIED', 'UNSPECIFIED', 'UNSPECIFIED', ('UNSPECIFIED'), ('UNSPECIFIED'), ('UNSPECIFIED') ) ;
#16 = ADVANCED_BREP_SHAPE_REPRESENTATION ( 'sone3D', ( #83, #20 ), #63 ) ;
#17 = UNCERTAINTY_MEASURE_WITH_UNIT (LENGTH_MEASURE( 1.000000000000000100E-005 ), #190, 'distance_accuracy_value', 'NONE');
#18 = PRODUCT ( 'sone3D', 'sone3D', '', ( #196 ) ) ;
#19 = VECTOR ( 'NONE', #182, 1000.000000000000000 ) ;
#20 = AXIS2_PLACEMENT_3D ( 'NONE', #1, #2, #194 ) ;
#21 = VECTOR ( 'NONE', #141, 1000.000000000000000 ) ;
#22 = FACE_OUTER_BOUND ( 'NONE', #120, .T. ) ;
#23 = COORDINATED_UNIVERSAL_TIME_OFFSET ( 9, 0, .AHEAD. ) ;
#24 = CALENDAR_DATE ( 2015, 11, 8 ) ;
#25 = AXIS2_PLACEMENT_3D ( 'NONE', #156, #157, #158 ) ;
#26 = CC_DESIGN_APPROVAL ( #7, ( #47 ) ) ;
#27 = APPROVAL_PERSON_ORGANIZATION ( #223, #7, #225 ) ;
#28 = PRODUCT_DEFINITION_FORMATION_WITH_SPECIFIED_SOURCE ( 'ANY', '', #18, .NOT_KNOWN. ) ;
#29 = FACE_OUTER_BOUND ( 'NONE', #121, .T. ) ;
#30 = COORDINATED_UNIVERSAL_TIME_OFFSET ( 9, 0, .AHEAD. ) ;
#31 = COORDINATED_UNIVERSAL_TIME_OFFSET ( 9, 0, .AHEAD. ) ;
#32 = CC_DESIGN_APPROVAL ( #3, ( #28 ) ) ;
#33 = APPLICATION_CONTEXT ( 'configuration controlled 3d designs of mechanical parts and assemblies' ) ;
#34 = VECTOR ( 'NONE', #172, 1000.000000000000000 ) ;
#35 = APPLICATION_CONTEXT ( 'configuration controlled 3d designs of mechanical parts and assemblies' ) ;
#36 = CC_DESIGN_SECURITY_CLASSIFICATION ( #47, ( #28 ) ) ;
#37 = AXIS2_PLACEMENT_3D ( 'NONE', #167, #168, #169 ) ;
#38 = APPROVAL_PERSON_ORGANIZATION ( #209, #3, #211 ) ;
#39 = CALENDAR_DATE ( 2015, 11, 8 ) ;
#40 = COORDINATED_UNIVERSAL_TIME_OFFSET ( 9, 0, .AHEAD. ) ;
#41 = CALENDAR_DATE ( 2015, 11, 8 ) ;
#42 = CC_DESIGN_APPROVAL ( #58, ( #59 ) ) ;
#43 = CALENDAR_DATE ( 2015, 11, 8 ) ;
#44 = VECTOR ( 'NONE', #144, 1000.000000000000000 ) ;
#45 = FACE_OUTER_BOUND ( 'NONE', #116, .T. ) ;
#46 = CALENDAR_DATE ( 2015, 11, 8 ) ;
#47 = SECURITY_CLASSIFICATION ( '', '', #218 ) ;
#48 = ORGANIZATION ( 'UNSPECIFIED', 'UNSPECIFIED', '' ) ;
#49 = VECTOR ( 'NONE', #147, 1000.000000000000000 ) ;
#50 = FACE_OUTER_BOUND ( 'NONE', #118, .T. ) ;
#51 = AXIS2_PLACEMENT_3D ( 'NONE', #160, #161, #162 ) ;
#52 = VECTOR ( 'NONE', #179, 1000.000000000000000 ) ;
#53 = VECTOR ( 'NONE', #165, 1000.000000000000000 ) ;
#54 = APPROVAL_PERSON_ORGANIZATION ( #200, #58, #202 ) ;
#55 = COORDINATED_UNIVERSAL_TIME_OFFSET ( 9, 0, .AHEAD. ) ;
#56 = VECTOR ( 'NONE', #176, 1000.000000000000000 ) ;
#57 = LOCAL_TIME ( 19, 13, 53.00000000000000000, #31 ) ;
#58 = APPROVAL ( #201, 'UNSPECIFIED' ) ;
#59 = PRODUCT_DEFINITION ( 'UNKNOWN', '', #28, #81 ) ;
#60 = CC_DESIGN_PERSON_AND_ORGANIZATION_ASSIGNMENT ( #205, #206, ( #59 ) ) ;
#61 = ADVANCED_FACE ( 'NONE', ( #235 ), #122, .F. ) ;
#62 = CC_DESIGN_PERSON_AND_ORGANIZATION_ASSIGNMENT ( #197, #198, ( #18 ) ) ;
#63 =( GEOMETRIC_REPRESENTATION_CONTEXT ( 3 ) GLOBAL_UNCERTAINTY_ASSIGNED_CONTEXT ( ( #17 ) ) GLOBAL_UNIT_ASSIGNED_CONTEXT ( ( #190, #191, #192 ) ) REPRESENTATION_CONTEXT ( 'NONE', 'WORKASPACE' ) );
#64 = EDGE_CURVE ( 'NONE', #88, #87, #126, .T. ) ;
#65 = EDGE_CURVE ( 'NONE', #88, #89, #130, .T. ) ;
#66 = EDGE_CURVE ( 'NONE', #87, #96, #133, .T. ) ;
#67 = EDGE_CURVE ( 'NONE', #89, #96, #136, .T. ) ;
#68 = EDGE_CURVE ( 'NONE', #94, #91, #139, .T. ) ;
#69 = EDGE_CURVE ( 'NONE', #96, #91, #142, .T. ) ;
#70 = EDGE_CURVE ( 'NONE', #92, #88, #145, .T. ) ;
#71 = ADVANCED_FACE ( 'NONE', ( #232 ), #129, .T. ) ;
#72 = ADVANCED_FACE ( 'NONE', ( #45 ), #151, .F. ) ;
#73 = ADVANCED_FACE ( 'NONE', ( #50 ), #155, .F. ) ;
#74 = ADVANCED_FACE ( 'NONE', ( #29 ), #159, .F. ) ;
#75 = EDGE_CURVE ( 'NONE', #91, #93, #163, .T. ) ;
#76 = ADVANCED_FACE ( 'NONE', ( #22 ), #166, .F. ) ;
#77 = EDGE_CURVE ( 'NONE', #94, #92, #170, .T. ) ;
#78 = EDGE_CURVE ( 'NONE', #92, #93, #174, .T. ) ;
#79 = EDGE_CURVE ( 'NONE', #93, #87, #177, .T. ) ;
#80 = EDGE_CURVE ( 'NONE', #89, #94, #180, .T. ) ;
#81 = DESIGN_CONTEXT ( 'detailed design', #35, 'design' ) ;
#82 = PRODUCT_DEFINITION_SHAPE ( 'NONE', 'NONE',  #59 ) ;
#83 = MANIFOLD_SOLID_BREP ( 'ÎÞ½ - µoµ1', #233 ) ;
#84 = ORIENTED_EDGE ( 'NONE', *, *, #77, .F. ) ;
#85 = ORIENTED_EDGE ( 'NONE', *, *, #75, .T. ) ;
#86 = ORIENTED_EDGE ( 'NONE', *, *, #70, .F. ) ;
#87 = VERTEX_POINT ( 'NONE', #173 ) ;
#88 = VERTEX_POINT ( 'NONE', #183 ) ;
#89 = VERTEX_POINT ( 'NONE', #184 ) ;
#90 = ORIENTED_EDGE ( 'NONE', *, *, #78, .F. ) ;
#91 = VERTEX_POINT ( 'NONE', #185 ) ;
#92 = VERTEX_POINT ( 'NONE', #186 ) ;
#93 = VERTEX_POINT ( 'NONE', #187 ) ;
#94 = VERTEX_POINT ( 'NONE', #188 ) ;
#95 = ORIENTED_EDGE ( 'NONE', *, *, #78, .T. ) ;
#96 = VERTEX_POINT ( 'NONE', #189 ) ;
#97 = ORIENTED_EDGE ( 'NONE', *, *, #68, .T. ) ;
#98 = ORIENTED_EDGE ( 'NONE', *, *, #64, .F. ) ;
#99 = ORIENTED_EDGE ( 'NONE', *, *, #79, .T. ) ;
#100 = ORIENTED_EDGE ( 'NONE', *, *, #65, .F. ) ;
#101 = ORIENTED_EDGE ( 'NONE', *, *, #66, .T. ) ;
#102 = ORIENTED_EDGE ( 'NONE', *, *, #67, .F. ) ;
#103 = ORIENTED_EDGE ( 'NONE', *, *, #64, .T. ) ;
#104 = ORIENTED_EDGE ( 'NONE', *, *, #69, .T. ) ;
#105 = ORIENTED_EDGE ( 'NONE', *, *, #80, .F. ) ;
#106 = ORIENTED_EDGE ( 'NONE', *, *, #68, .F. ) ;
#107 = ORIENTED_EDGE ( 'NONE', *, *, #80, .T. ) ;
#108 = ORIENTED_EDGE ( 'NONE', *, *, #67, .T. ) ;
#109 = ORIENTED_EDGE ( 'NONE', *, *, #77, .T. ) ;
#110 = ORIENTED_EDGE ( 'NONE', *, *, #70, .T. ) ;
#111 = ORIENTED_EDGE ( 'NONE', *, *, #65, .T. ) ;
#112 = ORIENTED_EDGE ( 'NONE', *, *, #79, .F. ) ;
#113 = ORIENTED_EDGE ( 'NONE', *, *, #75, .F. ) ;
#114 = ORIENTED_EDGE ( 'NONE', *, *, #69, .F. ) ;
#115 = ORIENTED_EDGE ( 'NONE', *, *, #66, .F. ) ;
#116 = EDGE_LOOP ( 'NONE', ( #101, #102, #100, #103 ) ) ;
#117 = EDGE_LOOP ( 'NONE', ( #109, #110, #111, #107 ) ) ;
#118 = EDGE_LOOP ( 'NONE', ( #104, #106, #105, #108 ) ) ;
#119 = EDGE_LOOP ( 'NONE', ( #113, #114, #115, #112 ) ) ;
#120 = EDGE_LOOP ( 'NONE', ( #99, #98, #86, #95 ) ) ;
#121 = EDGE_LOOP ( 'NONE', ( #85, #90, #84, #97 ) ) ;
#122 = PLANE ( 'NONE',  #231 ) ;
#123 = CARTESIAN_POINT ( 'NONE',  ( 0.0000000000000000000, 0.0000000000000000000, -500.0000000000000000 ) ) ;
#124 = DIRECTION ( 'NONE',  ( -0.0000000000000000000, 0.0000000000000000000, 1.000000000000000000 ) ) ;
#125 = DIRECTION ( 'NONE',  ( 1.000000000000000000, 0.0000000000000000000, 0.0000000000000000000 ) ) ;
#126 = LINE ( 'NONE', #127, #237 ) ;
#127 = CARTESIAN_POINT ( 'NONE',  ( 7.500000000000000900, -3.000000000000000000, 500.0000000000000000 ) ) ;
#128 = DIRECTION ( 'NONE',  ( -0.0000000000000000000, -0.0000000000000000000, -1.000000000000000000 ) ) ;
#129 = PLANE ( 'NONE',  #234 ) ;
#130 = LINE ( 'NONE', #131, #229 ) ;
#131 = CARTESIAN_POINT ( 'NONE',  ( 7.500000000000000900, 3.000000000000000000, 500.0000000000000000 ) ) ;
#132 = DIRECTION ( 'NONE',  ( -0.0000000000000000000, 1.000000000000000000, -0.0000000000000000000 ) ) ;
#133 = LINE ( 'NONE', #134, #228 ) ;
#134 = CARTESIAN_POINT ( 'NONE',  ( 7.500000000000000900, 3.000000000000000000, -500.0000000000000000 ) ) ;
#135 = DIRECTION ( 'NONE',  ( -0.0000000000000000000, 1.000000000000000000, -0.0000000000000000000 ) ) ;
#136 = LINE ( 'NONE', #137, #230 ) ;
#137 = CARTESIAN_POINT ( 'NONE',  ( 7.500000000000000900, 3.000000000000000000, 500.0000000000000000 ) ) ;
#138 = DIRECTION ( 'NONE',  ( -0.0000000000000000000, -0.0000000000000000000, -1.000000000000000000 ) ) ;
#139 = LINE ( 'NONE', #140, #21 ) ;
#140 = CARTESIAN_POINT ( 'NONE',  ( -7.499999999999999100, 3.000000000000000000, 500.0000000000000000 ) ) ;
#141 = DIRECTION ( 'NONE',  ( -0.0000000000000000000, -0.0000000000000000000, -1.000000000000000000 ) ) ;
#142 = LINE ( 'NONE', #143, #44 ) ;
#143 = CARTESIAN_POINT ( 'NONE',  ( -7.499999999999999100, 3.000000000000000000, -500.0000000000000000 ) ) ;
#144 = DIRECTION ( 'NONE',  ( -1.000000000000000000, -0.0000000000000000000, -0.0000000000000000000 ) ) ;
#145 = LINE ( 'NONE', #146, #49 ) ;
#146 = CARTESIAN_POINT ( 'NONE',  ( -7.499999999999998200, -3.000000000000000000, 500.0000000000000000 ) ) ;
#147 = DIRECTION ( 'NONE',  ( 1.000000000000000000, 0.0000000000000000000, 0.0000000000000000000 ) ) ;
#148 = CARTESIAN_POINT ( 'NONE',  ( 0.0000000000000000000, 0.0000000000000000000, 500.0000000000000000 ) ) ;
#149 = DIRECTION ( 'NONE',  ( -0.0000000000000000000, 0.0000000000000000000, 1.000000000000000000 ) ) ;
#150 = DIRECTION ( 'NONE',  ( 1.000000000000000000, 0.0000000000000000000, 0.0000000000000000000 ) ) ;
#151 = PLANE ( 'NONE',  #236 ) ;
#152 = CARTESIAN_POINT ( 'NONE',  ( 7.500000000000000900, 3.000000000000000000, 500.0000000000000000 ) ) ;
#153 = DIRECTION ( 'NONE',  ( -1.000000000000000000, 0.0000000000000000000, 0.0000000000000000000 ) ) ;
#154 = DIRECTION ( 'NONE',  ( 0.0000000000000000000, 0.0000000000000000000, 1.000000000000000000 ) ) ;
#155 = PLANE ( 'NONE',  #25 ) ;
#156 = CARTESIAN_POINT ( 'NONE',  ( -7.499999999999999100, 3.000000000000000000, 500.0000000000000000 ) ) ;
#157 = DIRECTION ( 'NONE',  ( 0.0000000000000000000, -1.000000000000000000, 0.0000000000000000000 ) ) ;
#158 = DIRECTION ( 'NONE',  ( 0.0000000000000000000, -0.0000000000000000000, -1.000000000000000000 ) ) ;
#159 = PLANE ( 'NONE',  #51 ) ;
#160 = CARTESIAN_POINT ( 'NONE',  ( -7.499999999999999100, 3.000000000000000000, 500.0000000000000000 ) ) ;
#161 = DIRECTION ( 'NONE',  ( 1.000000000000000000, 1.445602896647339200E-016, -0.0000000000000000000 ) ) ;
#162 = DIRECTION ( 'NONE',  ( -1.445602896647339200E-016, 1.000000000000000000, 0.0000000000000000000 ) ) ;
#163 = LINE ( 'NONE', #164, #53 ) ;
#164 = CARTESIAN_POINT ( 'NONE',  ( -7.499999999999999100, 3.000000000000000000, -500.0000000000000000 ) ) ;
#165 = DIRECTION ( 'NONE',  ( 1.445602896647339200E-016, -1.000000000000000000, 0.0000000000000000000 ) ) ;
#166 = PLANE ( 'NONE',  #37 ) ;
#167 = CARTESIAN_POINT ( 'NONE',  ( -7.499999999999998200, -3.000000000000000000, 500.0000000000000000 ) ) ;
#168 = DIRECTION ( 'NONE',  ( 0.0000000000000000000, 1.000000000000000000, 0.0000000000000000000 ) ) ;
#169 = DIRECTION ( 'NONE',  ( 0.0000000000000000000, -0.0000000000000000000, 1.000000000000000000 ) ) ;
#170 = LINE ( 'NONE', #171, #34 ) ;
#171 = CARTESIAN_POINT ( 'NONE',  ( -7.499999999999999100, 3.000000000000000000, 500.0000000000000000 ) ) ;
#172 = DIRECTION ( 'NONE',  ( 1.445602896647339200E-016, -1.000000000000000000, 0.0000000000000000000 ) ) ;
#173 = CARTESIAN_POINT ( 'NONE',  ( 7.500000000000000900, -3.000000000000000000, -500.0000000000000000 ) ) ;
#174 = LINE ( 'NONE', #175, #56 ) ;
#175 = CARTESIAN_POINT ( 'NONE',  ( -7.499999999999998200, -3.000000000000000000, 500.0000000000000000 ) ) ;
#176 = DIRECTION ( 'NONE',  ( -0.0000000000000000000, -0.0000000000000000000, -1.000000000000000000 ) ) ;
#177 = LINE ( 'NONE', #178, #52 ) ;
#178 = CARTESIAN_POINT ( 'NONE',  ( -7.499999999999998200, -3.000000000000000000, -500.0000000000000000 ) ) ;
#179 = DIRECTION ( 'NONE',  ( 1.000000000000000000, 0.0000000000000000000, 0.0000000000000000000 ) ) ;
#180 = LINE ( 'NONE', #181, #19 ) ;
#181 = CARTESIAN_POINT ( 'NONE',  ( -7.499999999999999100, 3.000000000000000000, 500.0000000000000000 ) ) ;
#182 = DIRECTION ( 'NONE',  ( -1.000000000000000000, -0.0000000000000000000, -0.0000000000000000000 ) ) ;
#183 = CARTESIAN_POINT ( 'NONE',  ( 7.500000000000000900, -3.000000000000000000, 500.0000000000000000 ) ) ;
#184 = CARTESIAN_POINT ( 'NONE',  ( 7.500000000000000900, 3.000000000000000000, 500.0000000000000000 ) ) ;
#185 = CARTESIAN_POINT ( 'NONE',  ( -7.499999999999999100, 3.000000000000000000, -500.0000000000000000 ) ) ;
#186 = CARTESIAN_POINT ( 'NONE',  ( -7.499999999999998200, -3.000000000000000000, 500.0000000000000000 ) ) ;
#187 = CARTESIAN_POINT ( 'NONE',  ( -7.499999999999998200, -3.000000000000000000, -500.0000000000000000 ) ) ;
#188 = CARTESIAN_POINT ( 'NONE',  ( -7.499999999999999100, 3.000000000000000000, 500.0000000000000000 ) ) ;
#189 = CARTESIAN_POINT ( 'NONE',  ( 7.500000000000000900, 3.000000000000000000, -500.0000000000000000 ) ) ;
#190 =( LENGTH_UNIT ( ) NAMED_UNIT ( * ) SI_UNIT ( .MILLI., .METRE. ) );
#191 =( NAMED_UNIT ( * ) PLANE_ANGLE_UNIT ( ) SI_UNIT ( $, .RADIAN. ) );
#192 =( NAMED_UNIT ( * ) SI_UNIT ( $, .STERADIAN. ) SOLID_ANGLE_UNIT ( ) );
#193 = APPLICATION_PROTOCOL_DEFINITION ( 'international standard', 'config_control_design', 1994, #33 ) ;
#194 = DIRECTION ( 'NONE',  ( 1.000000000000000000, 0.0000000000000000000, 0.0000000000000000000 ) ) ;
#195 = SHAPE_DEFINITION_REPRESENTATION ( #82, #16 ) ;
#196 = MECHANICAL_CONTEXT ( 'NONE', #33, 'mechanical' ) ;
#197 = PERSON_AND_ORGANIZATION ( #15, #48 ) ;
#198 = PERSON_AND_ORGANIZATION_ROLE ( 'design_owner' ) ;
#199 = APPLICATION_PROTOCOL_DEFINITION ( 'international standard', 'config_control_design', 1994, #35 ) ;
#200 = PERSON_AND_ORGANIZATION ( #15, #48 ) ;
#201 = APPROVAL_STATUS ( 'not_yet_approved' ) ;
#202 = APPROVAL_ROLE ( '' ) ;
#203 = DATE_AND_TIME ( #43, #57 ) ;
#204 = APPROVAL_DATE_TIME ( #203, #58 ) ;
#205 = PERSON_AND_ORGANIZATION ( #15, #48 ) ;
#206 = PERSON_AND_ORGANIZATION_ROLE ( 'creator' ) ;
#207 = DATE_AND_TIME ( #41, #10 ) ;
#208 = DATE_TIME_ROLE ( 'creation_date' ) ;
#209 = PERSON_AND_ORGANIZATION ( #15, #48 ) ;
#210 = APPROVAL_STATUS ( 'not_yet_approved' ) ;
#211 = APPROVAL_ROLE ( '' ) ;
#212 = DATE_AND_TIME ( #39, #12 ) ;
#213 = APPROVAL_DATE_TIME ( #212, #3 ) ;
#214 = PERSON_AND_ORGANIZATION ( #15, #48 ) ;
#215 = PERSON_AND_ORGANIZATION_ROLE ( 'creator' ) ;
#216 = PERSON_AND_ORGANIZATION ( #15, #48 ) ;
#217 = PERSON_AND_ORGANIZATION_ROLE ( 'design_supplier' ) ;
#218 = SECURITY_CLASSIFICATION_LEVEL ( 'unclassified' ) ;
#219 = PERSON_AND_ORGANIZATION ( #15, #48 ) ;
#220 = PERSON_AND_ORGANIZATION_ROLE ( 'classification_officer' ) ;
#221 = DATE_AND_TIME ( #46, #6 ) ;
#222 = DATE_TIME_ROLE ( 'classification_date' ) ;
#223 = PERSON_AND_ORGANIZATION ( #15, #48 ) ;
#224 = APPROVAL_STATUS ( 'not_yet_approved' ) ;
#225 = APPROVAL_ROLE ( '' ) ;
#226 = DATE_AND_TIME ( #24, #5 ) ;
#227 = APPROVAL_DATE_TIME ( #226, #7 ) ;
#228 = VECTOR ( 'NONE', #135, 1000.000000000000000 ) ;
#229 = VECTOR ( 'NONE', #132, 1000.000000000000000 ) ;
#230 = VECTOR ( 'NONE', #138, 1000.000000000000000 ) ;
#231 = AXIS2_PLACEMENT_3D ( 'NONE', #123, #124, #125 ) ;
#232 = FACE_OUTER_BOUND ( 'NONE', #117, .T. ) ;
#233 = CLOSED_SHELL ( 'NONE', ( #74, #76, #72, #73, #71, #61 ) ) ;
#234 = AXIS2_PLACEMENT_3D ( 'NONE', #148, #149, #150 ) ;
#235 = FACE_OUTER_BOUND ( 'NONE', #119, .T. ) ;
#236 = AXIS2_PLACEMENT_3D ( 'NONE', #152, #153, #154 ) ;
#237 = VECTOR ( 'NONE', #128, 1000.000000000000000 ) ;
ENDSEC;
END-ISO-10303-21;
