ISO-10303-21;
HEADER;
FILE_DESCRIPTION (( 'STEP AP203' ),
    '1' );
FILE_NAME ('sone3D.STEP',
    '2015-08-11T10:13:30',
    ( '' ),
    ( '' ),
    'SwSTEP 2.0',
    'SolidWorks 2012',
    '' );
FILE_SCHEMA (( 'CONFIG_CONTROL_DESIGN' ));
ENDSEC;

DATA;
#1 = APPROVAL ( #36, 'UNSPECIFIED' ) ;
#2 = CC_DESIGN_APPROVAL ( #1, ( #11 ) ) ;
#3 = CC_DESIGN_APPROVAL ( #67, ( #68 ) ) ;
#4 = CALENDAR_DATE ( 2015, 11, 8 ) ;
#5 = CALENDAR_DATE ( 2015, 11, 8 ) ;
#6 = APPROVAL_PERSON_ORGANIZATION ( #35, #1, #37 ) ;
#7 = SECURITY_CLASSIFICATION ( '', '', #44 ) ;
#8 = COORDINATED_UNIVERSAL_TIME_OFFSET ( 9, 0, .AHEAD. ) ;
#9 = COORDINATED_UNIVERSAL_TIME_OFFSET ( 9, 0, .AHEAD. ) ;
#10 = CALENDAR_DATE ( 2015, 11, 8 ) ;
#11 = PRODUCT_DEFINITION_FORMATION_WITH_SPECIFIED_SOURCE ( 'ANY', '', #232, .NOT_KNOWN. ) ;
#12 = COORDINATED_UNIVERSAL_TIME_OFFSET ( 9, 0, .AHEAD. ) ;
#13 = VECTOR ( 'NONE', #167, 1000.000000000000000 ) ;
#14 = VECTOR ( 'NONE', #201, 1000.000000000000000 ) ;
#15 = VECTOR ( 'NONE', #161, 1000.000000000000000 ) ;
#16 = VECTOR ( 'NONE', #204, 1000.000000000000000 ) ;
#17 = VECTOR ( 'NONE', #195, 1000.000000000000000 ) ;
#18 = VECTOR ( 'NONE', #198, 1000.000000000000000 ) ;
#19 = VECTOR ( 'NONE', #164, 1000.000000000000000 ) ;
#20 = CC_DESIGN_DATE_AND_TIME_ASSIGNMENT ( #33, #34, ( #68 ) ) ;
#21 = LOCAL_TIME ( 19, 13, 30.00000000000000000, #8 ) ;
#22 = MECHANICAL_CONTEXT ( 'NONE', #54, 'mechanical' ) ;
#23 = PERSON_AND_ORGANIZATION ( #208, #213 ) ;
#24 = PERSON_AND_ORGANIZATION_ROLE ( 'design_owner' ) ;
#25 = APPLICATION_PROTOCOL_DEFINITION ( 'international standard', 'config_control_design', 1994, #231 ) ;
#26 = PERSON_AND_ORGANIZATION ( #208, #213 ) ;
#27 = APPROVAL_STATUS ( 'not_yet_approved' ) ;
#28 = APPROVAL_ROLE ( '' ) ;
#29 = DATE_AND_TIME ( #4, #70 ) ;
#30 = APPROVAL_DATE_TIME ( #29, #67 ) ;
#31 = PERSON_AND_ORGANIZATION ( #208, #213 ) ;
#32 = PERSON_AND_ORGANIZATION_ROLE ( 'creator' ) ;
#33 = DATE_AND_TIME ( #5, #21 ) ;
#34 = DATE_TIME_ROLE ( 'creation_date' ) ;
#35 = PERSON_AND_ORGANIZATION ( #208, #213 ) ;
#36 = APPROVAL_STATUS ( 'not_yet_approved' ) ;
#37 = APPROVAL_ROLE ( '' ) ;
#38 = DATE_AND_TIME ( #10, #85 ) ;
#39 = APPROVAL_DATE_TIME ( #38, #1 ) ;
#40 = PERSON_AND_ORGANIZATION ( #208, #213 ) ;
#41 = PERSON_AND_ORGANIZATION_ROLE ( 'creator' ) ;
#42 = PERSON_AND_ORGANIZATION ( #208, #213 ) ;
#43 = PERSON_AND_ORGANIZATION_ROLE ( 'design_supplier' ) ;
#44 = SECURITY_CLASSIFICATION_LEVEL ( 'unclassified' ) ;
#45 = PERSON_AND_ORGANIZATION ( #208, #213 ) ;
#46 = PERSON_AND_ORGANIZATION_ROLE ( 'classification_officer' ) ;
#47 = DATE_AND_TIME ( #175, #76 ) ;
#48 = DATE_TIME_ROLE ( 'classification_date' ) ;
#49 = PERSON_AND_ORGANIZATION ( #208, #213 ) ;
#50 = APPROVAL_STATUS ( 'not_yet_approved' ) ;
#51 = APPROVAL_ROLE ( '' ) ;
#52 = DATE_AND_TIME ( #169, #79 ) ;
#53 = APPROVAL_DATE_TIME ( #52, #78 ) ;
#54 = APPLICATION_CONTEXT ( 'configuration controlled 3d designs of mechanical parts and assemblies' ) ;
#55 = DIRECTION ( 'NONE',  ( 1.000000000000000000, 0.0000000000000000000, 0.0000000000000000000 ) ) ;
#56 = DIRECTION ( 'NONE',  ( 0.0000000000000000000, 0.0000000000000000000, 1.000000000000000000 ) ) ;
#57 = ADVANCED_FACE ( 'NONE', ( #234 ), #127, .F. ) ;
#58 = ADVANCED_FACE ( 'NONE', ( #219 ), #132, .F. ) ;
#59 = ADVANCED_FACE ( 'NONE', ( #223 ), #136, .F. ) ;
#60 = ADVANCED_FACE ( 'NONE', ( #228 ), #140, .T. ) ;
#61 = ADVANCED_FACE ( 'NONE', ( #225 ), #144, .F. ) ;
#62 = ADVANCED_FACE ( 'NONE', ( #221 ), #148, .F. ) ;
#63 = EDGE_CURVE ( 'NONE', #121, #119, #152, .T. ) ;
#64 = EDGE_CURVE ( 'NONE', #120, #119, #156, .T. ) ;
#65 = EDGE_CURVE ( 'NONE', #123, #122, #159, .T. ) ;
#66 = EDGE_CURVE ( 'NONE', #125, #121, #162, .T. ) ;
#67 = APPROVAL ( #27, 'UNSPECIFIED' ) ;
#68 = PRODUCT_DEFINITION ( 'UNKNOWN', '', #11, #216 ) ;
#69 = CC_DESIGN_PERSON_AND_ORGANIZATION_ASSIGNMENT ( #23, #24, ( #232 ) ) ;
#70 = LOCAL_TIME ( 19, 13, 30.00000000000000000, #12 ) ;
#71 = CC_DESIGN_PERSON_AND_ORGANIZATION_ASSIGNMENT ( #31, #32, ( #68 ) ) ;
#72 =( GEOMETRIC_REPRESENTATION_CONTEXT ( 3 ) GLOBAL_UNCERTAINTY_ASSIGNED_CONTEXT ( ( #206 ) ) GLOBAL_UNIT_ASSIGNED_CONTEXT ( ( #177, #178, #176 ) ) REPRESENTATION_CONTEXT ( 'NONE', 'WORKASPACE' ) );
#73 = CC_DESIGN_PERSON_AND_ORGANIZATION_ASSIGNMENT ( #40, #41, ( #11 ) ) ;
#74 = CC_DESIGN_PERSON_AND_ORGANIZATION_ASSIGNMENT ( #42, #43, ( #11 ) ) ;
#75 = CC_DESIGN_PERSON_AND_ORGANIZATION_ASSIGNMENT ( #45, #46, ( #7 ) ) ;
#76 = LOCAL_TIME ( 19, 13, 30.00000000000000000, #170 ) ;
#77 = CC_DESIGN_DATE_AND_TIME_ASSIGNMENT ( #47, #48, ( #7 ) ) ;
#78 = APPROVAL ( #50, 'UNSPECIFIED' ) ;
#79 = LOCAL_TIME ( 19, 13, 30.00000000000000000, #172 ) ;
#80 = PRODUCT_RELATED_PRODUCT_CATEGORY ( 'detail', '', ( #232 ) ) ;
#81 = EDGE_CURVE ( 'NONE', #122, #120, #165, .T. ) ;
#82 = EDGE_CURVE ( 'NONE', #119, #124, #168, .T. ) ;
#83 = EDGE_CURVE ( 'NONE', #120, #118, #203, .T. ) ;
#84 = EDGE_CURVE ( 'NONE', #124, #125, #200, .T. ) ;
#85 = LOCAL_TIME ( 19, 13, 30.00000000000000000, #9 ) ;
#86 = EDGE_CURVE ( 'NONE', #118, #124, #197, .T. ) ;
#87 = EDGE_CURVE ( 'NONE', #122, #121, #194, .T. ) ;
#88 = EDGE_CURVE ( 'NONE', #123, #125, #191, .T. ) ;
#89 = EDGE_CURVE ( 'NONE', #118, #123, #188, .T. ) ;
#90 = ORIENTED_EDGE ( 'NONE', *, *, #63, .T. ) ;
#91 = ORIENTED_EDGE ( 'NONE', *, *, #88, .T. ) ;
#92 = ORIENTED_EDGE ( 'NONE', *, *, #87, .F. ) ;
#93 = ORIENTED_EDGE ( 'NONE', *, *, #65, .F. ) ;
#94 = ORIENTED_EDGE ( 'NONE', *, *, #66, .T. ) ;
#95 = ORIENTED_EDGE ( 'NONE', *, *, #86, .T. ) ;
#96 = ORIENTED_EDGE ( 'NONE', *, *, #88, .F. ) ;
#97 = ORIENTED_EDGE ( 'NONE', *, *, #89, .F. ) ;
#98 = ORIENTED_EDGE ( 'NONE', *, *, #84, .T. ) ;
#99 = ORIENTED_EDGE ( 'NONE', *, *, #64, .F. ) ;
#100 = EDGE_LOOP ( 'NONE', ( #94, #92, #93, #91 ) ) ;
#101 = EDGE_LOOP ( 'NONE', ( #90, #99, #128, #126 ) ) ;
#102 = EDGE_LOOP ( 'NONE', ( #98, #96, #97, #95 ) ) ;
#103 = EDGE_LOOP ( 'NONE', ( #116, #115, #117, #113 ) ) ;
#104 = EDGE_LOOP ( 'NONE', ( #112, #111, #110, #114 ) ) ;
#105 = EDGE_LOOP ( 'NONE', ( #108, #107, #106, #109 ) ) ;
#106 = ORIENTED_EDGE ( 'NONE', *, *, #63, .F. ) ;
#107 = ORIENTED_EDGE ( 'NONE', *, *, #82, .F. ) ;
#108 = ORIENTED_EDGE ( 'NONE', *, *, #84, .F. ) ;
#109 = ORIENTED_EDGE ( 'NONE', *, *, #66, .F. ) ;
#110 = ORIENTED_EDGE ( 'NONE', *, *, #81, .T. ) ;
#111 = ORIENTED_EDGE ( 'NONE', *, *, #65, .T. ) ;
#112 = ORIENTED_EDGE ( 'NONE', *, *, #89, .T. ) ;
#113 = ORIENTED_EDGE ( 'NONE', *, *, #64, .T. ) ;
#114 = ORIENTED_EDGE ( 'NONE', *, *, #83, .T. ) ;
#115 = ORIENTED_EDGE ( 'NONE', *, *, #86, .F. ) ;
#116 = ORIENTED_EDGE ( 'NONE', *, *, #82, .T. ) ;
#117 = ORIENTED_EDGE ( 'NONE', *, *, #83, .F. ) ;
#118 = VERTEX_POINT ( 'NONE', #155 ) ;
#119 = VERTEX_POINT ( 'NONE', #185 ) ;
#120 = VERTEX_POINT ( 'NONE', #179 ) ;
#121 = VERTEX_POINT ( 'NONE', #181 ) ;
#122 = VERTEX_POINT ( 'NONE', #180 ) ;
#123 = VERTEX_POINT ( 'NONE', #184 ) ;
#124 = VERTEX_POINT ( 'NONE', #183 ) ;
#125 = VERTEX_POINT ( 'NONE', #182 ) ;
#126 = ORIENTED_EDGE ( 'NONE', *, *, #87, .T. ) ;
#127 = PLANE ( 'NONE',  #233 ) ;
#128 = ORIENTED_EDGE ( 'NONE', *, *, #81, .F. ) ;
#129 = CARTESIAN_POINT ( 'NONE',  ( 0.0000000000000000000, 0.0000000000000000000, -500.0000000000000000 ) ) ;
#130 = DIRECTION ( 'NONE',  ( -0.0000000000000000000, 0.0000000000000000000, 1.000000000000000000 ) ) ;
#131 = DIRECTION ( 'NONE',  ( 1.000000000000000000, 0.0000000000000000000, 0.0000000000000000000 ) ) ;
#132 = PLANE ( 'NONE',  #235 ) ;
#133 = CARTESIAN_POINT ( 'NONE',  ( -5.000000000000000900, 3.000000000000000000, 500.0000000000000000 ) ) ;
#134 = DIRECTION ( 'NONE',  ( 0.0000000000000000000, -1.000000000000000000, 0.0000000000000000000 ) ) ;
#135 = DIRECTION ( 'NONE',  ( 0.0000000000000000000, -0.0000000000000000000, -1.000000000000000000 ) ) ;
#136 = PLANE ( 'NONE',  #220 ) ;
#137 = CARTESIAN_POINT ( 'NONE',  ( -5.000000000000000900, -3.000000000000000000, 500.0000000000000000 ) ) ;
#138 = DIRECTION ( 'NONE',  ( 0.0000000000000000000, 1.000000000000000000, 0.0000000000000000000 ) ) ;
#139 = DIRECTION ( 'NONE',  ( 0.0000000000000000000, -0.0000000000000000000, 1.000000000000000000 ) ) ;
#140 = PLANE ( 'NONE',  #229 ) ;
#141 = CARTESIAN_POINT ( 'NONE',  ( 0.0000000000000000000, 0.0000000000000000000, 500.0000000000000000 ) ) ;
#142 = DIRECTION ( 'NONE',  ( -0.0000000000000000000, 0.0000000000000000000, 1.000000000000000000 ) ) ;
#143 = DIRECTION ( 'NONE',  ( 1.000000000000000000, 0.0000000000000000000, 0.0000000000000000000 ) ) ;
#144 = PLANE ( 'NONE',  #222 ) ;
#145 = CARTESIAN_POINT ( 'NONE',  ( 5.000000000000000900, 3.000000000000000000, 500.0000000000000000 ) ) ;
#146 = DIRECTION ( 'NONE',  ( -1.000000000000000000, 0.0000000000000000000, 0.0000000000000000000 ) ) ;
#147 = DIRECTION ( 'NONE',  ( 0.0000000000000000000, 0.0000000000000000000, 1.000000000000000000 ) ) ;
#148 = PLANE ( 'NONE',  #226 ) ;
#149 = CARTESIAN_POINT ( 'NONE',  ( -5.000000000000000900, 3.000000000000000000, 500.0000000000000000 ) ) ;
#150 = DIRECTION ( 'NONE',  ( 1.000000000000000000, 0.0000000000000000000, -0.0000000000000000000 ) ) ;
#151 = DIRECTION ( 'NONE',  ( -0.0000000000000000000, 0.0000000000000000000, -1.000000000000000000 ) ) ;
#152 = LINE ( 'NONE', #153, #224 ) ;
#153 = CARTESIAN_POINT ( 'NONE',  ( 5.000000000000000900, 3.000000000000000000, -500.0000000000000000 ) ) ;
#154 = DIRECTION ( 'NONE',  ( -0.0000000000000000000, 1.000000000000000000, -0.0000000000000000000 ) ) ;
#155 = CARTESIAN_POINT ( 'NONE',  ( -5.000000000000000900, 3.000000000000000000, 500.0000000000000000 ) ) ;
#156 = LINE ( 'NONE', #157, #227 ) ;
#157 = CARTESIAN_POINT ( 'NONE',  ( 5.000000000000000900, 3.000000000000000000, 500.0000000000000000 ) ) ;
#158 = DIRECTION ( 'NONE',  ( -0.0000000000000000000, -0.0000000000000000000, -1.000000000000000000 ) ) ;
#159 = LINE ( 'NONE', #160, #15 ) ;
#160 = CARTESIAN_POINT ( 'NONE',  ( -5.000000000000000900, -3.000000000000000000, 500.0000000000000000 ) ) ;
#161 = DIRECTION ( 'NONE',  ( 1.000000000000000000, 0.0000000000000000000, 0.0000000000000000000 ) ) ;
#162 = LINE ( 'NONE', #163, #19 ) ;
#163 = CARTESIAN_POINT ( 'NONE',  ( -5.000000000000000900, -3.000000000000000000, -500.0000000000000000 ) ) ;
#164 = DIRECTION ( 'NONE',  ( 1.000000000000000000, 0.0000000000000000000, 0.0000000000000000000 ) ) ;
#165 = LINE ( 'NONE', #166, #13 ) ;
#166 = CARTESIAN_POINT ( 'NONE',  ( 5.000000000000000900, 3.000000000000000000, 500.0000000000000000 ) ) ;
#167 = DIRECTION ( 'NONE',  ( -0.0000000000000000000, 1.000000000000000000, -0.0000000000000000000 ) ) ;
#168 = LINE ( 'NONE', #205, #16 ) ;
#169 = CALENDAR_DATE ( 2015, 11, 8 ) ;
#170 = COORDINATED_UNIVERSAL_TIME_OFFSET ( 9, 0, .AHEAD. ) ;
#171 = CC_DESIGN_SECURITY_CLASSIFICATION ( #7, ( #11 ) ) ;
#172 = COORDINATED_UNIVERSAL_TIME_OFFSET ( 9, 0, .AHEAD. ) ;
#173 = CC_DESIGN_APPROVAL ( #78, ( #7 ) ) ;
#174 = APPROVAL_PERSON_ORGANIZATION ( #49, #78, #51 ) ;
#175 = CALENDAR_DATE ( 2015, 11, 8 ) ;
#176 =( NAMED_UNIT ( * ) SI_UNIT ( $, .STERADIAN. ) SOLID_ANGLE_UNIT ( ) );
#177 =( LENGTH_UNIT ( ) NAMED_UNIT ( * ) SI_UNIT ( .MILLI., .METRE. ) );
#178 =( NAMED_UNIT ( * ) PLANE_ANGLE_UNIT ( ) SI_UNIT ( $, .RADIAN. ) );
#179 = CARTESIAN_POINT ( 'NONE',  ( 5.000000000000000900, 3.000000000000000000, 500.0000000000000000 ) ) ;
#180 = CARTESIAN_POINT ( 'NONE',  ( 5.000000000000000900, -3.000000000000000000, 500.0000000000000000 ) ) ;
#181 = CARTESIAN_POINT ( 'NONE',  ( 5.000000000000000900, -3.000000000000000000, -500.0000000000000000 ) ) ;
#182 = CARTESIAN_POINT ( 'NONE',  ( -5.000000000000000900, -3.000000000000000000, -500.0000000000000000 ) ) ;
#183 = CARTESIAN_POINT ( 'NONE',  ( -5.000000000000000900, 3.000000000000000000, -500.0000000000000000 ) ) ;
#184 = CARTESIAN_POINT ( 'NONE',  ( -5.000000000000000900, -3.000000000000000000, 500.0000000000000000 ) ) ;
#185 = CARTESIAN_POINT ( 'NONE',  ( 5.000000000000000900, 3.000000000000000000, -500.0000000000000000 ) ) ;
#186 = DIRECTION ( 'NONE',  ( 0.0000000000000000000, -1.000000000000000000, 0.0000000000000000000 ) ) ;
#187 = CARTESIAN_POINT ( 'NONE',  ( -5.000000000000000900, 3.000000000000000000, 500.0000000000000000 ) ) ;
#188 = LINE ( 'NONE', #187, #211 ) ;
#189 = DIRECTION ( 'NONE',  ( -0.0000000000000000000, -0.0000000000000000000, -1.000000000000000000 ) ) ;
#190 = CARTESIAN_POINT ( 'NONE',  ( -5.000000000000000900, -3.000000000000000000, 500.0000000000000000 ) ) ;
#191 = LINE ( 'NONE', #190, #209 ) ;
#192 = DIRECTION ( 'NONE',  ( -0.0000000000000000000, -0.0000000000000000000, -1.000000000000000000 ) ) ;
#193 = CARTESIAN_POINT ( 'NONE',  ( 5.000000000000000900, -3.000000000000000000, 500.0000000000000000 ) ) ;
#194 = LINE ( 'NONE', #193, #214 ) ;
#195 = DIRECTION ( 'NONE',  ( -0.0000000000000000000, -0.0000000000000000000, -1.000000000000000000 ) ) ;
#196 = CARTESIAN_POINT ( 'NONE',  ( -5.000000000000000900, 3.000000000000000000, 500.0000000000000000 ) ) ;
#197 = LINE ( 'NONE', #196, #17 ) ;
#198 = DIRECTION ( 'NONE',  ( 0.0000000000000000000, -1.000000000000000000, 0.0000000000000000000 ) ) ;
#199 = CARTESIAN_POINT ( 'NONE',  ( -5.000000000000000900, 3.000000000000000000, -500.0000000000000000 ) ) ;
#200 = LINE ( 'NONE', #199, #18 ) ;
#201 = DIRECTION ( 'NONE',  ( -1.000000000000000000, -0.0000000000000000000, -0.0000000000000000000 ) ) ;
#202 = CARTESIAN_POINT ( 'NONE',  ( -5.000000000000000900, 3.000000000000000000, 500.0000000000000000 ) ) ;
#203 = LINE ( 'NONE', #202, #14 ) ;
#204 = DIRECTION ( 'NONE',  ( -1.000000000000000000, -0.0000000000000000000, -0.0000000000000000000 ) ) ;
#205 = CARTESIAN_POINT ( 'NONE',  ( -5.000000000000000900, 3.000000000000000000, -500.0000000000000000 ) ) ;
#206 = UNCERTAINTY_MEASURE_WITH_UNIT (LENGTH_MEASURE( 1.000000000000000100E-005 ), #177, 'distance_accuracy_value', 'NONE');
#207 = ADVANCED_BREP_SHAPE_REPRESENTATION ( 'sone3D', ( #217, #210 ), #72 ) ;
#208 = PERSON ( 'UNSPECIFIED', 'UNSPECIFIED', 'UNSPECIFIED', ('UNSPECIFIED'), ('UNSPECIFIED'), ('UNSPECIFIED') ) ;
#209 = VECTOR ( 'NONE', #189, 1000.000000000000000 ) ;
#210 = AXIS2_PLACEMENT_3D ( 'NONE', #230, #56, #55 ) ;
#211 = VECTOR ( 'NONE', #186, 1000.000000000000000 ) ;
#212 = APPROVAL_PERSON_ORGANIZATION ( #26, #67, #28 ) ;
#213 = ORGANIZATION ( 'UNSPECIFIED', 'UNSPECIFIED', '' ) ;
#214 = VECTOR ( 'NONE', #192, 1000.000000000000000 ) ;
#215 = SHAPE_DEFINITION_REPRESENTATION ( #218, #207 ) ;
#216 = DESIGN_CONTEXT ( 'detailed design', #231, 'design' ) ;
#217 = MANIFOLD_SOLID_BREP ( 'ÎÞ½ - µoµ1', #236 ) ;
#218 = PRODUCT_DEFINITION_SHAPE ( 'NONE', 'NONE',  #68 ) ;
#219 = FACE_OUTER_BOUND ( 'NONE', #103, .T. ) ;
#220 = AXIS2_PLACEMENT_3D ( 'NONE', #137, #138, #139 ) ;
#221 = FACE_OUTER_BOUND ( 'NONE', #102, .T. ) ;
#222 = AXIS2_PLACEMENT_3D ( 'NONE', #145, #146, #147 ) ;
#223 = FACE_OUTER_BOUND ( 'NONE', #100, .T. ) ;
#224 = VECTOR ( 'NONE', #154, 1000.000000000000000 ) ;
#225 = FACE_OUTER_BOUND ( 'NONE', #101, .T. ) ;
#226 = AXIS2_PLACEMENT_3D ( 'NONE', #149, #150, #151 ) ;
#227 = VECTOR ( 'NONE', #158, 1000.000000000000000 ) ;
#228 = FACE_OUTER_BOUND ( 'NONE', #104, .T. ) ;
#229 = AXIS2_PLACEMENT_3D ( 'NONE', #141, #142, #143 ) ;
#230 = CARTESIAN_POINT ( 'NONE',  ( 0.0000000000000000000, 0.0000000000000000000, 0.0000000000000000000 ) ) ;
#231 = APPLICATION_CONTEXT ( 'configuration controlled 3d designs of mechanical parts and assemblies' ) ;
#232 = PRODUCT ( 'sone3D', 'sone3D', '', ( #22 ) ) ;
#233 = AXIS2_PLACEMENT_3D ( 'NONE', #129, #130, #131 ) ;
#234 = FACE_OUTER_BOUND ( 'NONE', #105, .T. ) ;
#235 = AXIS2_PLACEMENT_3D ( 'NONE', #133, #134, #135 ) ;
#236 = CLOSED_SHELL ( 'NONE', ( #62, #59, #61, #58, #60, #57 ) ) ;
#237 = APPLICATION_PROTOCOL_DEFINITION ( 'international standard', 'config_control_design', 1994, #54 ) ;
ENDSEC;
END-ISO-10303-21;
