ISO-10303-21;
HEADER;
FILE_DESCRIPTION (( 'STEP AP203' ),
    '1' );
FILE_NAME ('sone3D.STEP',
    '2015-08-11T10:13:02',
    ( '' ),
    ( '' ),
    'SwSTEP 2.0',
    'SolidWorks 2012',
    '' );
FILE_SCHEMA (( 'CONFIG_CONTROL_DESIGN' ));
ENDSEC;

DATA;
#1 = EDGE_LOOP ( 'NONE', ( #11, #12, #13, #15 ) ) ;
#2 = EDGE_LOOP ( 'NONE', ( #23, #25, #24, #26 ) ) ;
#3 = EDGE_LOOP ( 'NONE', ( #7, #9, #8, #10 ) ) ;
#4 = EDGE_LOOP ( 'NONE', ( #28, #29, #27, #31 ) ) ;
#5 = EDGE_LOOP ( 'NONE', ( #32, #33, #34, #30 ) ) ;
#6 = EDGE_LOOP ( 'NONE', ( #36, #37, #38, #35 ) ) ;
#7 = ORIENTED_EDGE ( 'NONE', *, *, #63, .T. ) ;
#8 = ORIENTED_EDGE ( 'NONE', *, *, #89, .F. ) ;
#9 = ORIENTED_EDGE ( 'NONE', *, *, #66, .F. ) ;
#10 = ORIENTED_EDGE ( 'NONE', *, *, #90, .T. ) ;
#11 = ORIENTED_EDGE ( 'NONE', *, *, #84, .T. ) ;
#12 = ORIENTED_EDGE ( 'NONE', *, *, #85, .F. ) ;
#13 = ORIENTED_EDGE ( 'NONE', *, *, #50, .F. ) ;
#14 = VERTEX_POINT ( 'NONE', #39 ) ;
#15 = ORIENTED_EDGE ( 'NONE', *, *, #66, .T. ) ;
#16 = VERTEX_POINT ( 'NONE', #40 ) ;
#17 = VERTEX_POINT ( 'NONE', #41 ) ;
#18 = VERTEX_POINT ( 'NONE', #42 ) ;
#19 = VERTEX_POINT ( 'NONE', #43 ) ;
#20 = VERTEX_POINT ( 'NONE', #44 ) ;
#21 = VERTEX_POINT ( 'NONE', #45 ) ;
#22 = VERTEX_POINT ( 'NONE', #46 ) ;
#23 = ORIENTED_EDGE ( 'NONE', *, *, #52, .T. ) ;
#24 = ORIENTED_EDGE ( 'NONE', *, *, #53, .F. ) ;
#25 = ORIENTED_EDGE ( 'NONE', *, *, #51, .F. ) ;
#26 = ORIENTED_EDGE ( 'NONE', *, *, #85, .T. ) ;
#27 = ORIENTED_EDGE ( 'NONE', *, *, #55, .F. ) ;
#28 = ORIENTED_EDGE ( 'NONE', *, *, #54, .T. ) ;
#29 = ORIENTED_EDGE ( 'NONE', *, *, #90, .F. ) ;
#30 = ORIENTED_EDGE ( 'NONE', *, *, #55, .T. ) ;
#31 = ORIENTED_EDGE ( 'NONE', *, *, #51, .T. ) ;
#32 = ORIENTED_EDGE ( 'NONE', *, *, #89, .T. ) ;
#33 = ORIENTED_EDGE ( 'NONE', *, *, #50, .T. ) ;
#34 = ORIENTED_EDGE ( 'NONE', *, *, #53, .T. ) ;
#35 = ORIENTED_EDGE ( 'NONE', *, *, #84, .F. ) ;
#36 = ORIENTED_EDGE ( 'NONE', *, *, #63, .F. ) ;
#37 = ORIENTED_EDGE ( 'NONE', *, *, #54, .F. ) ;
#38 = ORIENTED_EDGE ( 'NONE', *, *, #52, .F. ) ;
#39 = CARTESIAN_POINT ( 'NONE',  ( -15.00000000000000000, 2.499999999999999600, -500.0000000000000000 ) ) ;
#40 = CARTESIAN_POINT ( 'NONE',  ( -15.00000000000000000, -2.500000000000000400, -500.0000000000000000 ) ) ;
#41 = CARTESIAN_POINT ( 'NONE',  ( 15.00000000000000000, -2.500000000000000400, 500.0000000000000000 ) ) ;
#42 = CARTESIAN_POINT ( 'NONE',  ( -15.00000000000000000, -2.500000000000000400, 500.0000000000000000 ) ) ;
#43 = CARTESIAN_POINT ( 'NONE',  ( 15.00000000000000000, -2.500000000000000400, -500.0000000000000000 ) ) ;
#44 = CARTESIAN_POINT ( 'NONE',  ( 15.00000000000000000, 2.499999999999999600, -500.0000000000000000 ) ) ;
#45 = CARTESIAN_POINT ( 'NONE',  ( -15.00000000000000000, 2.499999999999999600, 500.0000000000000000 ) ) ;
#46 = CARTESIAN_POINT ( 'NONE',  ( 15.00000000000000000, 2.499999999999999600, 500.0000000000000000 ) ) ;
#47 = PLANE ( 'NONE',  #222 ) ;
#48 = CARTESIAN_POINT ( 'NONE',  ( 0.0000000000000000000, 0.0000000000000000000, -500.0000000000000000 ) ) ;
#49 = ADVANCED_FACE ( 'NONE', ( #231 ), #47, .F. ) ;
#50 = EDGE_CURVE ( 'NONE', #18, #17, #203, .T. ) ;
#51 = EDGE_CURVE ( 'NONE', #22, #20, #199, .T. ) ;
#52 = EDGE_CURVE ( 'NONE', #19, #20, #196, .T. ) ;
#53 = EDGE_CURVE ( 'NONE', #17, #22, #193, .T. ) ;
#54 = EDGE_CURVE ( 'NONE', #20, #14, #190, .T. ) ;
#55 = EDGE_CURVE ( 'NONE', #22, #21, #187, .T. ) ;
#56 = PRODUCT_DEFINITION ( 'UNKNOWN', '', #75, #236 ) ;
#57 = APPROVAL ( #135, 'UNSPECIFIED' ) ;
#58 = CC_DESIGN_PERSON_AND_ORGANIZATION_ASSIGNMENT ( #131, #132, ( #83 ) ) ;
#59 = LOCAL_TIME ( 19, 13, 2.000000000000000000, #170 ) ;
#60 = CC_DESIGN_PERSON_AND_ORGANIZATION_ASSIGNMENT ( #139, #140, ( #56 ) ) ;
#61 = ADVANCED_FACE ( 'NONE', ( #229 ), #200, .F. ) ;
#62 = ADVANCED_FACE ( 'NONE', ( #224 ), #87, .F. ) ;
#63 = EDGE_CURVE ( 'NONE', #14, #16, #92, .T. ) ;
#64 = ADVANCED_FACE ( 'NONE', ( #226 ), #95, .F. ) ;
#65 = LOCAL_TIME ( 19, 13, 2.000000000000000000, #71 ) ;
#66 = EDGE_CURVE ( 'NONE', #18, #16, #99, .T. ) ;
#67 = ADVANCED_FACE ( 'NONE', ( #174 ), #102, .F. ) ;
#68 = CC_DESIGN_APPROVAL ( #216, ( #80 ) ) ;
#69 = CC_DESIGN_SECURITY_CLASSIFICATION ( #80, ( #75 ) ) ;
#70 = CALENDAR_DATE ( 2015, 11, 8 ) ;
#71 = COORDINATED_UNIVERSAL_TIME_OFFSET ( 9, 0, .AHEAD. ) ;
#72 = COORDINATED_UNIVERSAL_TIME_OFFSET ( 9, 0, .AHEAD. ) ;
#73 = CALENDAR_DATE ( 2015, 11, 8 ) ;
#74 = APPROVAL_PERSON_ORGANIZATION ( #143, #209, #145 ) ;
#75 = PRODUCT_DEFINITION_FORMATION_WITH_SPECIFIED_SOURCE ( 'ANY', '', #83, .NOT_KNOWN. ) ;
#76 = APPROVAL_PERSON_ORGANIZATION ( #161, #216, #163 ) ;
#77 = COORDINATED_UNIVERSAL_TIME_OFFSET ( 9, 0, .AHEAD. ) ;
#78 = CC_DESIGN_APPROVAL ( #209, ( #75 ) ) ;
#79 = COORDINATED_UNIVERSAL_TIME_OFFSET ( 9, 0, .AHEAD. ) ;
#80 = SECURITY_CLASSIFICATION ( '', '', #156 ) ;
#81 = CALENDAR_DATE ( 2015, 11, 8 ) ;
#82 = CALENDAR_DATE ( 2015, 11, 8 ) ;
#83 = PRODUCT ( 'sone3D', 'sone3D', '', ( #130 ) ) ;
#84 = EDGE_CURVE ( 'NONE', #16, #19, #106, .T. ) ;
#85 = EDGE_CURVE ( 'NONE', #17, #19, #110, .T. ) ;
#86 = CARTESIAN_POINT ( 'NONE',  ( -15.00000000000000000, 2.499999999999999600, 500.0000000000000000 ) ) ;
#87 = PLANE ( 'NONE',  #228 ) ;
#88 = APPLICATION_CONTEXT ( 'configuration controlled 3d designs of mechanical parts and assemblies' ) ;
#89 = EDGE_CURVE ( 'NONE', #21, #18, #113, .T. ) ;
#90 = EDGE_CURVE ( 'NONE', #21, #14, #116, .T. ) ;
#91 = DIRECTION ( 'NONE',  ( -0.0000000000000000000, 0.0000000000000000000, -1.000000000000000000 ) ) ;
#92 = LINE ( 'NONE', #93, #181 ) ;
#93 = CARTESIAN_POINT ( 'NONE',  ( -15.00000000000000000, 2.499999999999999600, -500.0000000000000000 ) ) ;
#94 = DIRECTION ( 'NONE',  ( 0.0000000000000000000, -1.000000000000000000, 0.0000000000000000000 ) ) ;
#95 = PLANE ( 'NONE',  #177 ) ;
#96 = CARTESIAN_POINT ( 'NONE',  ( -15.00000000000000000, -2.500000000000000400, 500.0000000000000000 ) ) ;
#97 = DIRECTION ( 'NONE',  ( 0.0000000000000000000, 1.000000000000000000, 0.0000000000000000000 ) ) ;
#98 = DIRECTION ( 'NONE',  ( 0.0000000000000000000, -0.0000000000000000000, 1.000000000000000000 ) ) ;
#99 = LINE ( 'NONE', #100, #176 ) ;
#100 = CARTESIAN_POINT ( 'NONE',  ( -15.00000000000000000, -2.500000000000000400, 500.0000000000000000 ) ) ;
#101 = DIRECTION ( 'NONE',  ( -0.0000000000000000000, -0.0000000000000000000, -1.000000000000000000 ) ) ;
#102 = PLANE ( 'NONE',  #175 ) ;
#103 = CARTESIAN_POINT ( 'NONE',  ( 15.00000000000000000, 2.499999999999999600, 500.0000000000000000 ) ) ;
#104 = DIRECTION ( 'NONE',  ( -1.000000000000000000, 0.0000000000000000000, 0.0000000000000000000 ) ) ;
#105 = DIRECTION ( 'NONE',  ( 0.0000000000000000000, 0.0000000000000000000, 1.000000000000000000 ) ) ;
#106 = LINE ( 'NONE', #107, #182 ) ;
#107 = CARTESIAN_POINT ( 'NONE',  ( -15.00000000000000000, -2.500000000000000400, -500.0000000000000000 ) ) ;
#108 = DIRECTION ( 'NONE',  ( 1.000000000000000000, 0.0000000000000000000, 0.0000000000000000000 ) ) ;
#109 = PLANE ( 'NONE',  #180 ) ;
#110 = LINE ( 'NONE', #111, #179 ) ;
#111 = CARTESIAN_POINT ( 'NONE',  ( 15.00000000000000000, -2.500000000000000400, 500.0000000000000000 ) ) ;
#112 = DIRECTION ( 'NONE',  ( -0.0000000000000000000, -0.0000000000000000000, -1.000000000000000000 ) ) ;
#113 = LINE ( 'NONE', #114, #178 ) ;
#114 = CARTESIAN_POINT ( 'NONE',  ( -15.00000000000000000, 2.499999999999999600, 500.0000000000000000 ) ) ;
#115 = DIRECTION ( 'NONE',  ( 0.0000000000000000000, -1.000000000000000000, 0.0000000000000000000 ) ) ;
#116 = LINE ( 'NONE', #117, #168 ) ;
#117 = CARTESIAN_POINT ( 'NONE',  ( -15.00000000000000000, 2.499999999999999600, 500.0000000000000000 ) ) ;
#118 = DIRECTION ( 'NONE',  ( -0.0000000000000000000, -0.0000000000000000000, -1.000000000000000000 ) ) ;
#119 = CARTESIAN_POINT ( 'NONE',  ( 0.0000000000000000000, 0.0000000000000000000, 500.0000000000000000 ) ) ;
#120 = DIRECTION ( 'NONE',  ( -0.0000000000000000000, 0.0000000000000000000, 1.000000000000000000 ) ) ;
#121 = DIRECTION ( 'NONE',  ( 1.000000000000000000, 0.0000000000000000000, 0.0000000000000000000 ) ) ;
#122 =( LENGTH_UNIT ( ) NAMED_UNIT ( * ) SI_UNIT ( .MILLI., .METRE. ) );
#123 =( NAMED_UNIT ( * ) PLANE_ANGLE_UNIT ( ) SI_UNIT ( $, .RADIAN. ) );
#124 =( NAMED_UNIT ( * ) SI_UNIT ( $, .STERADIAN. ) SOLID_ANGLE_UNIT ( ) );
#125 = APPLICATION_PROTOCOL_DEFINITION ( 'international standard', 'config_control_design', 1994, #88 ) ;
#126 = CARTESIAN_POINT ( 'NONE',  ( 0.0000000000000000000, 0.0000000000000000000, 0.0000000000000000000 ) ) ;
#127 = DIRECTION ( 'NONE',  ( 0.0000000000000000000, 0.0000000000000000000, 1.000000000000000000 ) ) ;
#128 = DIRECTION ( 'NONE',  ( 1.000000000000000000, 0.0000000000000000000, 0.0000000000000000000 ) ) ;
#129 = SHAPE_DEFINITION_REPRESENTATION ( #234, #150 ) ;
#130 = MECHANICAL_CONTEXT ( 'NONE', #88, 'mechanical' ) ;
#131 = PERSON_AND_ORGANIZATION ( #151, #172 ) ;
#132 = PERSON_AND_ORGANIZATION_ROLE ( 'design_owner' ) ;
#133 = APPLICATION_PROTOCOL_DEFINITION ( 'international standard', 'config_control_design', 1994, #219 ) ;
#134 = PERSON_AND_ORGANIZATION ( #151, #172 ) ;
#135 = APPROVAL_STATUS ( 'not_yet_approved' ) ;
#136 = APPROVAL_ROLE ( '' ) ;
#137 = DATE_AND_TIME ( #169, #59 ) ;
#138 = APPROVAL_DATE_TIME ( #137, #57 ) ;
#139 = PERSON_AND_ORGANIZATION ( #151, #172 ) ;
#140 = PERSON_AND_ORGANIZATION_ROLE ( 'creator' ) ;
#141 = DATE_AND_TIME ( #82, #65 ) ;
#142 = DATE_TIME_ROLE ( 'creation_date' ) ;
#143 = PERSON_AND_ORGANIZATION ( #151, #172 ) ;
#144 = APPROVAL_STATUS ( 'not_yet_approved' ) ;
#145 = APPROVAL_ROLE ( '' ) ;
#146 = DATE_AND_TIME ( #81, #210 ) ;
#147 = APPROVAL_DATE_TIME ( #146, #209 ) ;
#148 = PERSON_AND_ORGANIZATION ( #151, #172 ) ;
#149 = UNCERTAINTY_MEASURE_WITH_UNIT (LENGTH_MEASURE( 1.000000000000000100E-005 ), #122, 'distance_accuracy_value', 'NONE');
#150 = ADVANCED_BREP_SHAPE_REPRESENTATION ( 'sone3D', ( #235, #166 ), #237 ) ;
#151 = PERSON ( 'UNSPECIFIED', 'UNSPECIFIED', 'UNSPECIFIED', ('UNSPECIFIED'), ('UNSPECIFIED'), ('UNSPECIFIED') ) ;
#152 = ADVANCED_FACE ( 'NONE', ( #183 ), #109, .T. ) ;
#153 = PERSON_AND_ORGANIZATION_ROLE ( 'creator' ) ;
#154 = PERSON_AND_ORGANIZATION ( #151, #172 ) ;
#155 = PERSON_AND_ORGANIZATION_ROLE ( 'design_supplier' ) ;
#156 = SECURITY_CLASSIFICATION_LEVEL ( 'unclassified' ) ;
#157 = PERSON_AND_ORGANIZATION ( #151, #172 ) ;
#158 = PERSON_AND_ORGANIZATION_ROLE ( 'classification_officer' ) ;
#159 = DATE_AND_TIME ( #73, #214 ) ;
#160 = DATE_TIME_ROLE ( 'classification_date' ) ;
#161 = PERSON_AND_ORGANIZATION ( #151, #172 ) ;
#162 = APPROVAL_STATUS ( 'not_yet_approved' ) ;
#163 = APPROVAL_ROLE ( '' ) ;
#164 = DATE_AND_TIME ( #70, #217 ) ;
#165 = APPROVAL_DATE_TIME ( #164, #216 ) ;
#166 = AXIS2_PLACEMENT_3D ( 'NONE', #126, #127, #128 ) ;
#167 = CC_DESIGN_APPROVAL ( #57, ( #56 ) ) ;
#168 = VECTOR ( 'NONE', #118, 1000.000000000000000 ) ;
#169 = CALENDAR_DATE ( 2015, 11, 8 ) ;
#170 = COORDINATED_UNIVERSAL_TIME_OFFSET ( 9, 0, .AHEAD. ) ;
#171 = APPROVAL_PERSON_ORGANIZATION ( #134, #57, #136 ) ;
#172 = ORGANIZATION ( 'UNSPECIFIED', 'UNSPECIFIED', '' ) ;
#173 = DIRECTION ( 'NONE',  ( 1.000000000000000000, 0.0000000000000000000, -0.0000000000000000000 ) ) ;
#174 = FACE_OUTER_BOUND ( 'NONE', #2, .T. ) ;
#175 = AXIS2_PLACEMENT_3D ( 'NONE', #103, #104, #105 ) ;
#176 = VECTOR ( 'NONE', #101, 1000.000000000000000 ) ;
#177 = AXIS2_PLACEMENT_3D ( 'NONE', #96, #97, #98 ) ;
#178 = VECTOR ( 'NONE', #115, 1000.000000000000000 ) ;
#179 = VECTOR ( 'NONE', #112, 1000.000000000000000 ) ;
#180 = AXIS2_PLACEMENT_3D ( 'NONE', #119, #120, #121 ) ;
#181 = VECTOR ( 'NONE', #94, 1000.000000000000000 ) ;
#182 = VECTOR ( 'NONE', #108, 1000.000000000000000 ) ;
#183 = FACE_OUTER_BOUND ( 'NONE', #5, .T. ) ;
#184 = CARTESIAN_POINT ( 'NONE',  ( -15.00000000000000000, 2.499999999999999600, 500.0000000000000000 ) ) ;
#185 = DIRECTION ( 'NONE',  ( -1.000000000000000000, -0.0000000000000000000, -0.0000000000000000000 ) ) ;
#186 = CARTESIAN_POINT ( 'NONE',  ( -15.00000000000000000, 2.499999999999999600, 500.0000000000000000 ) ) ;
#187 = LINE ( 'NONE', #186, #223 ) ;
#188 = DIRECTION ( 'NONE',  ( -1.000000000000000000, -0.0000000000000000000, -0.0000000000000000000 ) ) ;
#189 = CARTESIAN_POINT ( 'NONE',  ( -15.00000000000000000, 2.499999999999999600, -500.0000000000000000 ) ) ;
#190 = LINE ( 'NONE', #189, #221 ) ;
#191 = DIRECTION ( 'NONE',  ( -0.0000000000000000000, 1.000000000000000000, -0.0000000000000000000 ) ) ;
#192 = CARTESIAN_POINT ( 'NONE',  ( 15.00000000000000000, 2.499999999999999600, 500.0000000000000000 ) ) ;
#193 = LINE ( 'NONE', #192, #227 ) ;
#194 = DIRECTION ( 'NONE',  ( -0.0000000000000000000, 1.000000000000000000, -0.0000000000000000000 ) ) ;
#195 = CARTESIAN_POINT ( 'NONE',  ( 15.00000000000000000, 2.499999999999999600, -500.0000000000000000 ) ) ;
#196 = LINE ( 'NONE', #195, #230 ) ;
#197 = DIRECTION ( 'NONE',  ( -0.0000000000000000000, -0.0000000000000000000, -1.000000000000000000 ) ) ;
#198 = CARTESIAN_POINT ( 'NONE',  ( 15.00000000000000000, 2.499999999999999600, 500.0000000000000000 ) ) ;
#199 = LINE ( 'NONE', #198, #233 ) ;
#200 = PLANE ( 'NONE',  #225 ) ;
#201 = DIRECTION ( 'NONE',  ( 1.000000000000000000, 0.0000000000000000000, 0.0000000000000000000 ) ) ;
#202 = CARTESIAN_POINT ( 'NONE',  ( -15.00000000000000000, -2.500000000000000400, 500.0000000000000000 ) ) ;
#203 = LINE ( 'NONE', #202, #220 ) ;
#204 = DIRECTION ( 'NONE',  ( 1.000000000000000000, 0.0000000000000000000, 0.0000000000000000000 ) ) ;
#205 = DIRECTION ( 'NONE',  ( -0.0000000000000000000, 0.0000000000000000000, 1.000000000000000000 ) ) ;
#206 = DIRECTION ( 'NONE',  ( 0.0000000000000000000, -0.0000000000000000000, -1.000000000000000000 ) ) ;
#207 = DIRECTION ( 'NONE',  ( 0.0000000000000000000, -1.000000000000000000, 0.0000000000000000000 ) ) ;
#208 = CC_DESIGN_DATE_AND_TIME_ASSIGNMENT ( #141, #142, ( #56 ) ) ;
#209 = APPROVAL ( #144, 'UNSPECIFIED' ) ;
#210 = LOCAL_TIME ( 19, 13, 2.000000000000000000, #77 ) ;
#211 = CC_DESIGN_PERSON_AND_ORGANIZATION_ASSIGNMENT ( #148, #153, ( #75 ) ) ;
#212 = CC_DESIGN_PERSON_AND_ORGANIZATION_ASSIGNMENT ( #154, #155, ( #75 ) ) ;
#213 = CC_DESIGN_PERSON_AND_ORGANIZATION_ASSIGNMENT ( #157, #158, ( #80 ) ) ;
#214 = LOCAL_TIME ( 19, 13, 2.000000000000000000, #72 ) ;
#215 = CC_DESIGN_DATE_AND_TIME_ASSIGNMENT ( #159, #160, ( #80 ) ) ;
#216 = APPROVAL ( #162, 'UNSPECIFIED' ) ;
#217 = LOCAL_TIME ( 19, 13, 2.000000000000000000, #79 ) ;
#218 = PRODUCT_RELATED_PRODUCT_CATEGORY ( 'detail', '', ( #83 ) ) ;
#219 = APPLICATION_CONTEXT ( 'configuration controlled 3d designs of mechanical parts and assemblies' ) ;
#220 = VECTOR ( 'NONE', #201, 1000.000000000000000 ) ;
#221 = VECTOR ( 'NONE', #188, 1000.000000000000000 ) ;
#222 = AXIS2_PLACEMENT_3D ( 'NONE', #48, #205, #204 ) ;
#223 = VECTOR ( 'NONE', #185, 1000.000000000000000 ) ;
#224 = FACE_OUTER_BOUND ( 'NONE', #3, .T. ) ;
#225 = AXIS2_PLACEMENT_3D ( 'NONE', #184, #207, #206 ) ;
#226 = FACE_OUTER_BOUND ( 'NONE', #1, .T. ) ;
#227 = VECTOR ( 'NONE', #191, 1000.000000000000000 ) ;
#228 = AXIS2_PLACEMENT_3D ( 'NONE', #86, #173, #91 ) ;
#229 = FACE_OUTER_BOUND ( 'NONE', #4, .T. ) ;
#230 = VECTOR ( 'NONE', #194, 1000.000000000000000 ) ;
#231 = FACE_OUTER_BOUND ( 'NONE', #6, .T. ) ;
#232 = CLOSED_SHELL ( 'NONE', ( #62, #64, #67, #61, #152, #49 ) ) ;
#233 = VECTOR ( 'NONE', #197, 1000.000000000000000 ) ;
#234 = PRODUCT_DEFINITION_SHAPE ( 'NONE', 'NONE',  #56 ) ;
#235 = MANIFOLD_SOLID_BREP ( 'ÎÞ½ - µoµ1', #232 ) ;
#236 = DESIGN_CONTEXT ( 'detailed design', #219, 'design' ) ;
#237 =( GEOMETRIC_REPRESENTATION_CONTEXT ( 3 ) GLOBAL_UNCERTAINTY_ASSIGNED_CONTEXT ( ( #149 ) ) GLOBAL_UNIT_ASSIGNED_CONTEXT ( ( #122, #123, #124 ) ) REPRESENTATION_CONTEXT ( 'NONE', 'WORKASPACE' ) );
ENDSEC;
END-ISO-10303-21;
