ISO-10303-21;
HEADER;
FILE_DESCRIPTION (( 'STEP AP203' ),
    '1' );
FILE_NAME ('sone3D.STEP',
    '2015-08-11T10:12:42',
    ( '' ),
    ( '' ),
    'SwSTEP 2.0',
    'SolidWorks 2012',
    '' );
FILE_SCHEMA (( 'CONFIG_CONTROL_DESIGN' ));
ENDSEC;

DATA;
#1 = PRODUCT_RELATED_PRODUCT_CATEGORY ( 'detail', '', ( #68 ) ) ;
#2 = FACE_OUTER_BOUND ( 'NONE', #46, .T. ) ;
#3 = VECTOR ( 'NONE', #139, 1000.000000000000000 ) ;
#4 = VECTOR ( 'NONE', #133, 1000.000000000000000 ) ;
#5 = AXIS2_PLACEMENT_3D ( 'NONE', #118, #119, #120 ) ;
#6 = VECTOR ( 'NONE', #130, 1000.000000000000000 ) ;
#7 = AXIS2_PLACEMENT_3D ( 'NONE', #149, #150, #151 ) ;
#8 = AXIS2_PLACEMENT_3D ( 'NONE', #153, #154, #155 ) ;
#9 = VECTOR ( 'NONE', #113, 1000.000000000000000 ) ;
#10 = CLOSED_SHELL ( 'NONE', ( #67, #66, #64, #28, #65, #27 ) ) ;
#11 = VECTOR ( 'NONE', #109, 1000.000000000000000 ) ;
#12 = FACE_OUTER_BOUND ( 'NONE', #181, .T. ) ;
#13 = VECTOR ( 'NONE', #136, 1000.000000000000000 ) ;
#14 = FACE_OUTER_BOUND ( 'NONE', #48, .T. ) ;
#15 = VECTOR ( 'NONE', #123, 1000.000000000000000 ) ;
#16 = AXIS2_PLACEMENT_3D ( 'NONE', #114, #115, #116 ) ;
#17 = VECTOR ( 'NONE', #127, 1000.000000000000000 ) ;
#18 = EDGE_CURVE ( 'NONE', #74, #165, #107, .T. ) ;
#19 = EDGE_CURVE ( 'NONE', #75, #72, #111, .T. ) ;
#20 = ORIENTED_EDGE ( 'NONE', *, *, #18, .F. ) ;
#21 = ORIENTED_EDGE ( 'NONE', *, *, #56, .F. ) ;
#22 = ORIENTED_EDGE ( 'NONE', *, *, #54, .F. ) ;
#23 = ORIENTED_EDGE ( 'NONE', *, *, #19, .T. ) ;
#24 = ORIENTED_EDGE ( 'NONE', *, *, #19, .F. ) ;
#25 = APPLICATION_CONTEXT ( 'configuration controlled 3d designs of mechanical parts and assemblies' ) ;
#26 = APPLICATION_CONTEXT ( 'configuration controlled 3d designs of mechanical parts and assemblies' ) ;
#27 = ADVANCED_FACE ( 'NONE', ( #12 ), #110, .F. ) ;
#28 = ADVANCED_FACE ( 'NONE', ( #14 ), #117, .F. ) ;
#29 = DESIGN_CONTEXT ( 'detailed design', #26, 'design' ) ;
#30 = MANIFOLD_SOLID_BREP ( 'ÎÞ½ - µoµ1', #10 ) ;
#31 = PRODUCT_DEFINITION_SHAPE ( 'NONE', 'NONE',  #58 ) ;
#32 = LOCAL_TIME ( 19, 12, 42.00000000000000000, #170 ) ;
#33 = CC_DESIGN_PERSON_AND_ORGANIZATION_ASSIGNMENT ( #211, #212, ( #58 ) ) ;
#34 = LOCAL_TIME ( 19, 12, 42.00000000000000000, #80 ) ;
#35 = CC_DESIGN_DATE_AND_TIME_ASSIGNMENT ( #213, #214, ( #58 ) ) ;
#36 = APPROVAL ( #216, 'UNSPECIFIED' ) ;
#37 = LOCAL_TIME ( 19, 12, 42.00000000000000000, #89 ) ;
#38 = CC_DESIGN_PERSON_AND_ORGANIZATION_ASSIGNMENT ( #220, #221, ( #81 ) ) ;
#39 = CC_DESIGN_PERSON_AND_ORGANIZATION_ASSIGNMENT ( #222, #223, ( #81 ) ) ;
#40 = CC_DESIGN_PERSON_AND_ORGANIZATION_ASSIGNMENT ( #225, #226, ( #82 ) ) ;
#41 = LOCAL_TIME ( 19, 12, 42.00000000000000000, #79 ) ;
#42 = CC_DESIGN_DATE_AND_TIME_ASSIGNMENT ( #227, #228, ( #82 ) ) ;
#43 = APPROVAL ( #230, 'UNSPECIFIED' ) ;
#44 = LOCAL_TIME ( 19, 12, 42.00000000000000000, #91 ) ;
#45 = ORIENTED_EDGE ( 'NONE', *, *, #51, .T. ) ;
#46 = EDGE_LOOP ( 'NONE', ( #95, #97, #96, #98 ) ) ;
#47 = EDGE_LOOP ( 'NONE', ( #23, #234, #20, #237 ) ) ;
#48 = EDGE_LOOP ( 'NONE', ( #100, #101, #99, #103 ) ) ;
#49 = EDGE_CURVE ( 'NONE', #74, #75, #121, .T. ) ;
#50 = EDGE_CURVE ( 'NONE', #73, #70, #125, .T. ) ;
#51 = EDGE_CURVE ( 'NONE', #72, #70, #128, .T. ) ;
#52 = EDGE_CURVE ( 'NONE', #165, #73, #131, .T. ) ;
#53 = EDGE_CURVE ( 'NONE', #235, #71, #134, .T. ) ;
#54 = EDGE_CURVE ( 'NONE', #70, #71, #137, .T. ) ;
#55 = EDGE_CURVE ( 'NONE', #73, #235, #140, .T. ) ;
#56 = EDGE_CURVE ( 'NONE', #71, #75, #143, .T. ) ;
#57 = EDGE_CURVE ( 'NONE', #235, #74, #146, .T. ) ;
#58 = PRODUCT_DEFINITION ( 'UNKNOWN', '', #81, #29 ) ;
#59 = CC_DESIGN_PERSON_AND_ORGANIZATION_ASSIGNMENT ( #203, #204, ( #68 ) ) ;
#60 = APPROVAL ( #207, 'UNSPECIFIED' ) ;
#61 = ADVANCED_BREP_SHAPE_REPRESENTATION ( 'sone3D', ( #30, #166 ), #164 ) ;
#62 = PERSON ( 'UNSPECIFIED', 'UNSPECIFIED', 'UNSPECIFIED', ('UNSPECIFIED'), ('UNSPECIFIED'), ('UNSPECIFIED') ) ;
#63 = UNCERTAINTY_MEASURE_WITH_UNIT (LENGTH_MEASURE( 1.000000000000000100E-005 ), #195, 'distance_accuracy_value', 'NONE');
#64 = ADVANCED_FACE ( 'NONE', ( #2 ), #124, .F. ) ;
#65 = ADVANCED_FACE ( 'NONE', ( #172 ), #152, .T. ) ;
#66 = ADVANCED_FACE ( 'NONE', ( #179 ), #156, .F. ) ;
#67 = ADVANCED_FACE ( 'NONE', ( #177 ), #160, .F. ) ;
#68 = PRODUCT ( 'sone3D', 'sone3D', '', ( #202 ) ) ;
#69 = ORIENTED_EDGE ( 'NONE', *, *, #51, .F. ) ;
#70 = VERTEX_POINT ( 'NONE', #183 ) ;
#71 = VERTEX_POINT ( 'NONE', #184 ) ;
#72 = VERTEX_POINT ( 'NONE', #185 ) ;
#73 = VERTEX_POINT ( 'NONE', #186 ) ;
#74 = VERTEX_POINT ( 'NONE', #187 ) ;
#75 = VERTEX_POINT ( 'NONE', #188 ) ;
#76 = CALENDAR_DATE ( 2015, 11, 8 ) ;
#77 = CALENDAR_DATE ( 2015, 11, 8 ) ;
#78 = CC_DESIGN_APPROVAL ( #36, ( #81 ) ) ;
#79 = COORDINATED_UNIVERSAL_TIME_OFFSET ( 9, 0, .AHEAD. ) ;
#80 = COORDINATED_UNIVERSAL_TIME_OFFSET ( 9, 0, .AHEAD. ) ;
#81 = PRODUCT_DEFINITION_FORMATION_WITH_SPECIFIED_SOURCE ( 'ANY', '', #68, .NOT_KNOWN. ) ;
#82 = SECURITY_CLASSIFICATION ( '', '', #224 ) ;
#83 = CALENDAR_DATE ( 2015, 11, 8 ) ;
#84 = CALENDAR_DATE ( 2015, 11, 8 ) ;
#85 = CC_DESIGN_APPROVAL ( #43, ( #82 ) ) ;
#86 = CC_DESIGN_APPROVAL ( #60, ( #58 ) ) ;
#87 = CC_DESIGN_SECURITY_CLASSIFICATION ( #82, ( #81 ) ) ;
#88 = APPROVAL_PERSON_ORGANIZATION ( #215, #36, #217 ) ;
#89 = COORDINATED_UNIVERSAL_TIME_OFFSET ( 9, 0, .AHEAD. ) ;
#90 = APPROVAL_PERSON_ORGANIZATION ( #229, #43, #231 ) ;
#91 = COORDINATED_UNIVERSAL_TIME_OFFSET ( 9, 0, .AHEAD. ) ;
#92 = ORIENTED_EDGE ( 'NONE', *, *, #52, .F. ) ;
#93 = ORIENTED_EDGE ( 'NONE', *, *, #50, .F. ) ;
#94 = ORIENTED_EDGE ( 'NONE', *, *, #182, .T. ) ;
#95 = ORIENTED_EDGE ( 'NONE', *, *, #54, .T. ) ;
#96 = ORIENTED_EDGE ( 'NONE', *, *, #55, .F. ) ;
#97 = ORIENTED_EDGE ( 'NONE', *, *, #53, .F. ) ;
#98 = ORIENTED_EDGE ( 'NONE', *, *, #50, .T. ) ;
#99 = ORIENTED_EDGE ( 'NONE', *, *, #57, .F. ) ;
#100 = ORIENTED_EDGE ( 'NONE', *, *, #56, .T. ) ;
#101 = ORIENTED_EDGE ( 'NONE', *, *, #49, .F. ) ;
#102 = ORIENTED_EDGE ( 'NONE', *, *, #57, .T. ) ;
#103 = ORIENTED_EDGE ( 'NONE', *, *, #53, .T. ) ;
#104 = ORIENTED_EDGE ( 'NONE', *, *, #18, .T. ) ;
#105 = ORIENTED_EDGE ( 'NONE', *, *, #52, .T. ) ;
#106 = ORIENTED_EDGE ( 'NONE', *, *, #55, .T. ) ;
#107 = LINE ( 'NONE', #108, #11 ) ;
#108 = CARTESIAN_POINT ( 'NONE',  ( -12.50000000000000000, 2.499999999999999100, 500.0000000000000000 ) ) ;
#109 = DIRECTION ( 'NONE',  ( 0.0000000000000000000, -1.000000000000000000, 0.0000000000000000000 ) ) ;
#110 = PLANE ( 'NONE',  #16 ) ;
#111 = LINE ( 'NONE', #112, #9 ) ;
#112 = CARTESIAN_POINT ( 'NONE',  ( -12.50000000000000000, 2.499999999999999100, -500.0000000000000000 ) ) ;
#113 = DIRECTION ( 'NONE',  ( 0.0000000000000000000, -1.000000000000000000, 0.0000000000000000000 ) ) ;
#114 = CARTESIAN_POINT ( 'NONE',  ( 0.0000000000000000000, 0.0000000000000000000, -500.0000000000000000 ) ) ;
#115 = DIRECTION ( 'NONE',  ( -0.0000000000000000000, 0.0000000000000000000, 1.000000000000000000 ) ) ;
#116 = DIRECTION ( 'NONE',  ( 1.000000000000000000, 0.0000000000000000000, 0.0000000000000000000 ) ) ;
#117 = PLANE ( 'NONE',  #5 ) ;
#118 = CARTESIAN_POINT ( 'NONE',  ( -12.50000000000000000, 2.499999999999999100, 500.0000000000000000 ) ) ;
#119 = DIRECTION ( 'NONE',  ( 0.0000000000000000000, -1.000000000000000000, 0.0000000000000000000 ) ) ;
#120 = DIRECTION ( 'NONE',  ( 0.0000000000000000000, -0.0000000000000000000, -1.000000000000000000 ) ) ;
#121 = LINE ( 'NONE', #122, #15 ) ;
#122 = CARTESIAN_POINT ( 'NONE',  ( -12.50000000000000000, 2.499999999999999100, 500.0000000000000000 ) ) ;
#123 = DIRECTION ( 'NONE',  ( -0.0000000000000000000, -0.0000000000000000000, -1.000000000000000000 ) ) ;
#124 = PLANE ( 'NONE',  #7 ) ;
#125 = LINE ( 'NONE', #126, #17 ) ;
#126 = CARTESIAN_POINT ( 'NONE',  ( 12.50000000000000000, -2.500000000000000900, 500.0000000000000000 ) ) ;
#127 = DIRECTION ( 'NONE',  ( -0.0000000000000000000, -0.0000000000000000000, -1.000000000000000000 ) ) ;
#128 = LINE ( 'NONE', #129, #6 ) ;
#129 = CARTESIAN_POINT ( 'NONE',  ( -12.50000000000000000, -2.500000000000000900, -500.0000000000000000 ) ) ;
#130 = DIRECTION ( 'NONE',  ( 1.000000000000000000, 0.0000000000000000000, 0.0000000000000000000 ) ) ;
#131 = LINE ( 'NONE', #132, #4 ) ;
#132 = CARTESIAN_POINT ( 'NONE',  ( -12.50000000000000000, -2.500000000000000900, 500.0000000000000000 ) ) ;
#133 = DIRECTION ( 'NONE',  ( 1.000000000000000000, 0.0000000000000000000, 0.0000000000000000000 ) ) ;
#134 = LINE ( 'NONE', #135, #13 ) ;
#135 = CARTESIAN_POINT ( 'NONE',  ( 12.50000000000000000, 2.499999999999999100, 500.0000000000000000 ) ) ;
#136 = DIRECTION ( 'NONE',  ( -0.0000000000000000000, -0.0000000000000000000, -1.000000000000000000 ) ) ;
#137 = LINE ( 'NONE', #138, #3 ) ;
#138 = CARTESIAN_POINT ( 'NONE',  ( 12.50000000000000000, 2.499999999999999100, -500.0000000000000000 ) ) ;
#139 = DIRECTION ( 'NONE',  ( -0.0000000000000000000, 1.000000000000000000, -0.0000000000000000000 ) ) ;
#140 = LINE ( 'NONE', #141, #176 ) ;
#141 = CARTESIAN_POINT ( 'NONE',  ( 12.50000000000000000, 2.499999999999999100, 500.0000000000000000 ) ) ;
#142 = DIRECTION ( 'NONE',  ( -0.0000000000000000000, 1.000000000000000000, -0.0000000000000000000 ) ) ;
#143 = LINE ( 'NONE', #144, #167 ) ;
#144 = CARTESIAN_POINT ( 'NONE',  ( -12.50000000000000000, 2.499999999999999100, -500.0000000000000000 ) ) ;
#145 = DIRECTION ( 'NONE',  ( -1.000000000000000000, -0.0000000000000000000, -0.0000000000000000000 ) ) ;
#146 = LINE ( 'NONE', #147, #168 ) ;
#147 = CARTESIAN_POINT ( 'NONE',  ( -12.50000000000000000, 2.499999999999999100, 500.0000000000000000 ) ) ;
#148 = DIRECTION ( 'NONE',  ( -1.000000000000000000, -0.0000000000000000000, -0.0000000000000000000 ) ) ;
#149 = CARTESIAN_POINT ( 'NONE',  ( 12.50000000000000000, 2.499999999999999100, 500.0000000000000000 ) ) ;
#150 = DIRECTION ( 'NONE',  ( -1.000000000000000000, 0.0000000000000000000, 0.0000000000000000000 ) ) ;
#151 = DIRECTION ( 'NONE',  ( 0.0000000000000000000, 0.0000000000000000000, 1.000000000000000000 ) ) ;
#152 = PLANE ( 'NONE',  #8 ) ;
#153 = CARTESIAN_POINT ( 'NONE',  ( 0.0000000000000000000, 0.0000000000000000000, 500.0000000000000000 ) ) ;
#154 = DIRECTION ( 'NONE',  ( -0.0000000000000000000, 0.0000000000000000000, 1.000000000000000000 ) ) ;
#155 = DIRECTION ( 'NONE',  ( 1.000000000000000000, 0.0000000000000000000, 0.0000000000000000000 ) ) ;
#156 = PLANE ( 'NONE',  #178 ) ;
#157 = CARTESIAN_POINT ( 'NONE',  ( -12.50000000000000000, -2.500000000000000900, 500.0000000000000000 ) ) ;
#158 = DIRECTION ( 'NONE',  ( 0.0000000000000000000, 1.000000000000000000, 0.0000000000000000000 ) ) ;
#159 = DIRECTION ( 'NONE',  ( 0.0000000000000000000, -0.0000000000000000000, 1.000000000000000000 ) ) ;
#160 = PLANE ( 'NONE',  #171 ) ;
#161 = CARTESIAN_POINT ( 'NONE',  ( -12.50000000000000000, 2.499999999999999100, 500.0000000000000000 ) ) ;
#162 = DIRECTION ( 'NONE',  ( 1.000000000000000000, 0.0000000000000000000, -0.0000000000000000000 ) ) ;
#163 = DIRECTION ( 'NONE',  ( -0.0000000000000000000, 0.0000000000000000000, -1.000000000000000000 ) ) ;
#164 =( GEOMETRIC_REPRESENTATION_CONTEXT ( 3 ) GLOBAL_UNCERTAINTY_ASSIGNED_CONTEXT ( ( #63 ) ) GLOBAL_UNIT_ASSIGNED_CONTEXT ( ( #195, #196, #197 ) ) REPRESENTATION_CONTEXT ( 'NONE', 'WORKASPACE' ) );
#165 = VERTEX_POINT ( 'NONE', #189 ) ;
#166 = AXIS2_PLACEMENT_3D ( 'NONE', #193, #199, #200 ) ;
#167 = VECTOR ( 'NONE', #145, 1000.000000000000000 ) ;
#168 = VECTOR ( 'NONE', #148, 1000.000000000000000 ) ;
#169 = CALENDAR_DATE ( 2015, 11, 8 ) ;
#170 = COORDINATED_UNIVERSAL_TIME_OFFSET ( 9, 0, .AHEAD. ) ;
#171 = AXIS2_PLACEMENT_3D ( 'NONE', #161, #162, #163 ) ;
#172 = FACE_OUTER_BOUND ( 'NONE', #180, .T. ) ;
#173 = APPROVAL_PERSON_ORGANIZATION ( #206, #60, #208 ) ;
#174 = VECTOR ( 'NONE', #192, 1000.000000000000000 ) ;
#175 = ORGANIZATION ( 'UNSPECIFIED', 'UNSPECIFIED', '' ) ;
#176 = VECTOR ( 'NONE', #142, 1000.000000000000000 ) ;
#177 = FACE_OUTER_BOUND ( 'NONE', #47, .T. ) ;
#178 = AXIS2_PLACEMENT_3D ( 'NONE', #157, #158, #159 ) ;
#179 = FACE_OUTER_BOUND ( 'NONE', #236, .T. ) ;
#180 = EDGE_LOOP ( 'NONE', ( #104, #105, #106, #102 ) ) ;
#181 = EDGE_LOOP ( 'NONE', ( #24, #21, #22, #69 ) ) ;
#182 = EDGE_CURVE ( 'NONE', #165, #72, #190, .T. ) ;
#183 = CARTESIAN_POINT ( 'NONE',  ( 12.50000000000000000, -2.500000000000000900, -500.0000000000000000 ) ) ;
#184 = CARTESIAN_POINT ( 'NONE',  ( 12.50000000000000000, 2.499999999999999100, -500.0000000000000000 ) ) ;
#185 = CARTESIAN_POINT ( 'NONE',  ( -12.50000000000000000, -2.500000000000000900, -500.0000000000000000 ) ) ;
#186 = CARTESIAN_POINT ( 'NONE',  ( 12.50000000000000000, -2.500000000000000900, 500.0000000000000000 ) ) ;
#187 = CARTESIAN_POINT ( 'NONE',  ( -12.50000000000000000, 2.499999999999999100, 500.0000000000000000 ) ) ;
#188 = CARTESIAN_POINT ( 'NONE',  ( -12.50000000000000000, 2.499999999999999100, -500.0000000000000000 ) ) ;
#189 = CARTESIAN_POINT ( 'NONE',  ( -12.50000000000000000, -2.500000000000000900, 500.0000000000000000 ) ) ;
#190 = LINE ( 'NONE', #191, #174 ) ;
#191 = CARTESIAN_POINT ( 'NONE',  ( -12.50000000000000000, -2.500000000000000900, 500.0000000000000000 ) ) ;
#192 = DIRECTION ( 'NONE',  ( -0.0000000000000000000, -0.0000000000000000000, -1.000000000000000000 ) ) ;
#193 = CARTESIAN_POINT ( 'NONE',  ( 0.0000000000000000000, 0.0000000000000000000, 0.0000000000000000000 ) ) ;
#194 = CARTESIAN_POINT ( 'NONE',  ( 12.50000000000000000, 2.499999999999999100, 500.0000000000000000 ) ) ;
#195 =( LENGTH_UNIT ( ) NAMED_UNIT ( * ) SI_UNIT ( .MILLI., .METRE. ) );
#196 =( NAMED_UNIT ( * ) PLANE_ANGLE_UNIT ( ) SI_UNIT ( $, .RADIAN. ) );
#197 =( NAMED_UNIT ( * ) SI_UNIT ( $, .STERADIAN. ) SOLID_ANGLE_UNIT ( ) );
#198 = APPLICATION_PROTOCOL_DEFINITION ( 'international standard', 'config_control_design', 1994, #25 ) ;
#199 = DIRECTION ( 'NONE',  ( 0.0000000000000000000, 0.0000000000000000000, 1.000000000000000000 ) ) ;
#200 = DIRECTION ( 'NONE',  ( 1.000000000000000000, 0.0000000000000000000, 0.0000000000000000000 ) ) ;
#201 = SHAPE_DEFINITION_REPRESENTATION ( #31, #61 ) ;
#202 = MECHANICAL_CONTEXT ( 'NONE', #25, 'mechanical' ) ;
#203 = PERSON_AND_ORGANIZATION ( #62, #175 ) ;
#204 = PERSON_AND_ORGANIZATION_ROLE ( 'design_owner' ) ;
#205 = APPLICATION_PROTOCOL_DEFINITION ( 'international standard', 'config_control_design', 1994, #26 ) ;
#206 = PERSON_AND_ORGANIZATION ( #62, #175 ) ;
#207 = APPROVAL_STATUS ( 'not_yet_approved' ) ;
#208 = APPROVAL_ROLE ( '' ) ;
#209 = DATE_AND_TIME ( #169, #32 ) ;
#210 = APPROVAL_DATE_TIME ( #209, #60 ) ;
#211 = PERSON_AND_ORGANIZATION ( #62, #175 ) ;
#212 = PERSON_AND_ORGANIZATION_ROLE ( 'creator' ) ;
#213 = DATE_AND_TIME ( #77, #34 ) ;
#214 = DATE_TIME_ROLE ( 'creation_date' ) ;
#215 = PERSON_AND_ORGANIZATION ( #62, #175 ) ;
#216 = APPROVAL_STATUS ( 'not_yet_approved' ) ;
#217 = APPROVAL_ROLE ( '' ) ;
#218 = DATE_AND_TIME ( #83, #37 ) ;
#219 = APPROVAL_DATE_TIME ( #218, #36 ) ;
#220 = PERSON_AND_ORGANIZATION ( #62, #175 ) ;
#221 = PERSON_AND_ORGANIZATION_ROLE ( 'creator' ) ;
#222 = PERSON_AND_ORGANIZATION ( #62, #175 ) ;
#223 = PERSON_AND_ORGANIZATION_ROLE ( 'design_supplier' ) ;
#224 = SECURITY_CLASSIFICATION_LEVEL ( 'unclassified' ) ;
#225 = PERSON_AND_ORGANIZATION ( #62, #175 ) ;
#226 = PERSON_AND_ORGANIZATION_ROLE ( 'classification_officer' ) ;
#227 = DATE_AND_TIME ( #76, #41 ) ;
#228 = DATE_TIME_ROLE ( 'classification_date' ) ;
#229 = PERSON_AND_ORGANIZATION ( #62, #175 ) ;
#230 = APPROVAL_STATUS ( 'not_yet_approved' ) ;
#231 = APPROVAL_ROLE ( '' ) ;
#232 = DATE_AND_TIME ( #84, #44 ) ;
#233 = APPROVAL_DATE_TIME ( #232, #43 ) ;
#234 = ORIENTED_EDGE ( 'NONE', *, *, #182, .F. ) ;
#235 = VERTEX_POINT ( 'NONE', #194 ) ;
#236 = EDGE_LOOP ( 'NONE', ( #45, #93, #92, #94 ) ) ;
#237 = ORIENTED_EDGE ( 'NONE', *, *, #49, .T. ) ;
ENDSEC;
END-ISO-10303-21;
