ISO-10303-21;
HEADER;
FILE_DESCRIPTION (( 'STEP AP203' ),
    '1' );
FILE_NAME ('sone3D.STEP',
    '2015-08-11T10:12:24',
    ( '' ),
    ( '' ),
    'SwSTEP 2.0',
    'SolidWorks 2012',
    '' );
FILE_SCHEMA (( 'CONFIG_CONTROL_DESIGN' ));
ENDSEC;

DATA;
#1 = APPROVAL ( #170, 'UNSPECIFIED' ) ;
#2 = LOCAL_TIME ( 19, 12, 24.00000000000000000, #37 ) ;
#3 = CC_DESIGN_PERSON_AND_ORGANIZATION_ASSIGNMENT ( #174, #175, ( #221 ) ) ;
#4 = LOCAL_TIME ( 19, 12, 24.00000000000000000, #39 ) ;
#5 = CC_DESIGN_DATE_AND_TIME_ASSIGNMENT ( #176, #177, ( #221 ) ) ;
#6 = APPROVAL ( #179, 'UNSPECIFIED' ) ;
#7 = LOCAL_TIME ( 19, 12, 24.00000000000000000, #25 ) ;
#8 = CC_DESIGN_PERSON_AND_ORGANIZATION_ASSIGNMENT ( #183, #184, ( #23 ) ) ;
#9 = CC_DESIGN_PERSON_AND_ORGANIZATION_ASSIGNMENT ( #185, #186, ( #23 ) ) ;
#10 = CC_DESIGN_PERSON_AND_ORGANIZATION_ASSIGNMENT ( #188, #189, ( #230 ) ) ;
#11 = LOCAL_TIME ( 19, 12, 24.00000000000000000, #227 ) ;
#12 = CC_DESIGN_DATE_AND_TIME_ASSIGNMENT ( #190, #191, ( #230 ) ) ;
#13 = APPROVAL ( #193, 'UNSPECIFIED' ) ;
#14 = FACE_OUTER_BOUND ( 'NONE', #64, .T. ) ;
#15 = VECTOR ( 'NONE', #99, 1000.000000000000000 ) ;
#16 = FACE_OUTER_BOUND ( 'NONE', #136, .T. ) ;
#17 = AXIS2_PLACEMENT_3D ( 'NONE', #208, #212, #210 ) ;
#18 = AXIS2_PLACEMENT_3D ( 'NONE', #85, #84, #83 ) ;
#19 = VECTOR ( 'NONE', #236, 1000.000000000000000 ) ;
#20 = FACE_OUTER_BOUND ( 'NONE', #137, .T. ) ;
#21 = FACE_OUTER_BOUND ( 'NONE', #135, .T. ) ;
#22 = APPROVAL_PERSON_ORGANIZATION ( #178, #6, #180 ) ;
#23 = PRODUCT_DEFINITION_FORMATION_WITH_SPECIFIED_SOURCE ( 'ANY', '', #204, .NOT_KNOWN. ) ;
#24 = VECTOR ( 'NONE', #90, 1000.000000000000000 ) ;
#25 = COORDINATED_UNIVERSAL_TIME_OFFSET ( 9, 0, .AHEAD. ) ;
#26 = AXIS2_PLACEMENT_3D ( 'NONE', #209, #216, #218 ) ;
#27 = VECTOR ( 'NONE', #158, 1000.000000000000000 ) ;
#28 = VECTOR ( 'NONE', #96, 1000.000000000000000 ) ;
#29 = AXIS2_PLACEMENT_3D ( 'NONE', #206, #214, #213 ) ;
#30 = AXIS2_PLACEMENT_3D ( 'NONE', #219, #217, #205 ) ;
#31 = CC_DESIGN_APPROVAL ( #1, ( #221 ) ) ;
#32 = CALENDAR_DATE ( 2015, 11, 8 ) ;
#33 = CALENDAR_DATE ( 2015, 11, 8 ) ;
#34 = VECTOR ( 'NONE', #153, 1000.000000000000000 ) ;
#35 = FACE_OUTER_BOUND ( 'NONE', #66, .T. ) ;
#36 = VECTOR ( 'NONE', #93, 1000.000000000000000 ) ;
#37 = COORDINATED_UNIVERSAL_TIME_OFFSET ( 9, 0, .AHEAD. ) ;
#38 = ORGANIZATION ( 'UNSPECIFIED', 'UNSPECIFIED', '' ) ;
#39 = COORDINATED_UNIVERSAL_TIME_OFFSET ( 9, 0, .AHEAD. ) ;
#40 = APPROVAL_PERSON_ORGANIZATION ( #169, #1, #171 ) ;
#41 = AXIS2_PLACEMENT_3D ( 'NONE', #161, #162, #163 ) ;
#42 = VECTOR ( 'NONE', #103, 1000.000000000000000 ) ;
#43 = EDGE_CURVE ( 'NONE', #132, #127, #125, .T. ) ;
#44 = EDGE_CURVE ( 'NONE', #126, #128, #121, .T. ) ;
#45 = EDGE_CURVE ( 'NONE', #126, #133, #118, .T. ) ;
#46 = ADVANCED_BREP_SHAPE_REPRESENTATION ( 'sone3D', ( #81, #41 ), #51 ) ;
#47 = PERSON ( 'UNSPECIFIED', 'UNSPECIFIED', 'UNSPECIFIED', ('UNSPECIFIED'), ('UNSPECIFIED'), ('UNSPECIFIED') ) ;
#48 = UNCERTAINTY_MEASURE_WITH_UNIT (LENGTH_MEASURE( 1.000000000000000100E-005 ), #139, 'distance_accuracy_value', 'NONE');
#49 = APPLICATION_CONTEXT ( 'configuration controlled 3d designs of mechanical parts and assemblies' ) ;
#50 = APPLICATION_CONTEXT ( 'configuration controlled 3d designs of mechanical parts and assemblies' ) ;
#51 =( GEOMETRIC_REPRESENTATION_CONTEXT ( 3 ) GLOBAL_UNCERTAINTY_ASSIGNED_CONTEXT ( ( #48 ) ) GLOBAL_UNIT_ASSIGNED_CONTEXT ( ( #139, #232, #159 ) ) REPRESENTATION_CONTEXT ( 'NONE', 'WORKASPACE' ) );
#52 = ORIENTED_EDGE ( 'NONE', *, *, #44, .F. ) ;
#53 = ORIENTED_EDGE ( 'NONE', *, *, #143, .F. ) ;
#54 = ORIENTED_EDGE ( 'NONE', *, *, #45, .T. ) ;
#55 = ORIENTED_EDGE ( 'NONE', *, *, #234, .T. ) ;
#56 = ORIENTED_EDGE ( 'NONE', *, *, #79, .F. ) ;
#57 = ORIENTED_EDGE ( 'NONE', *, *, #233, .F. ) ;
#58 = ORIENTED_EDGE ( 'NONE', *, *, #143, .T. ) ;
#59 = ORIENTED_EDGE ( 'NONE', *, *, #152, .T. ) ;
#60 = ORIENTED_EDGE ( 'NONE', *, *, #140, .F. ) ;
#61 = ORIENTED_EDGE ( 'NONE', *, *, #43, .F. ) ;
#62 = ORIENTED_EDGE ( 'NONE', *, *, #233, .T. ) ;
#63 = ORIENTED_EDGE ( 'NONE', *, *, #141, .F. ) ;
#64 = EDGE_LOOP ( 'NONE', ( #59, #61, #60, #62 ) ) ;
#65 = EDGE_LOOP ( 'NONE', ( #138, #53, #52, #54 ) ) ;
#66 = EDGE_LOOP ( 'NONE', ( #55, #57, #56, #58 ) ) ;
#67 = ORIENTED_EDGE ( 'NONE', *, *, #45, .F. ) ;
#68 = ORIENTED_EDGE ( 'NONE', *, *, #141, .T. ) ;
#69 = ORIENTED_EDGE ( 'NONE', *, *, #43, .T. ) ;
#70 = ORIENTED_EDGE ( 'NONE', *, *, #44, .T. ) ;
#71 = ORIENTED_EDGE ( 'NONE', *, *, #79, .T. ) ;
#72 = ORIENTED_EDGE ( 'NONE', *, *, #140, .T. ) ;
#73 = ORIENTED_EDGE ( 'NONE', *, *, #234, .F. ) ;
#74 = ORIENTED_EDGE ( 'NONE', *, *, #142, .F. ) ;
#75 = ORIENTED_EDGE ( 'NONE', *, *, #144, .F. ) ;
#76 = ORIENTED_EDGE ( 'NONE', *, *, #152, .F. ) ;
#77 = LOCAL_TIME ( 19, 12, 24.00000000000000000, #226 ) ;
#78 = PRODUCT_RELATED_PRODUCT_CATEGORY ( 'detail', '', ( #204 ) ) ;
#79 = EDGE_CURVE ( 'NONE', #128, #129, #122, .T. ) ;
#80 = PRODUCT_DEFINITION_SHAPE ( 'NONE', 'NONE',  #221 ) ;
#81 = MANIFOLD_SOLID_BREP ( 'ÎÞ½ - µoµ1', #199 ) ;
#82 = DESIGN_CONTEXT ( 'detailed design', #49, 'design' ) ;
#83 = DIRECTION ( 'NONE',  ( 0.0000000000000000000, -0.0000000000000000000, 1.000000000000000000 ) ) ;
#84 = DIRECTION ( 'NONE',  ( 0.0000000000000000000, 1.000000000000000000, 0.0000000000000000000 ) ) ;
#85 = CARTESIAN_POINT ( 'NONE',  ( -9.999999999999998200, -2.500000000000001300, 500.0000000000000000 ) ) ;
#86 = PLANE ( 'NONE',  #18 ) ;
#87 = DIRECTION ( 'NONE',  ( -0.0000000000000000000, 0.0000000000000000000, -1.000000000000000000 ) ) ;
#88 = DIRECTION ( 'NONE',  ( 1.000000000000000000, 0.0000000000000000000, -0.0000000000000000000 ) ) ;
#89 = CARTESIAN_POINT ( 'NONE',  ( -9.999999999999998200, 2.499999999999998700, 500.0000000000000000 ) ) ;
#90 = DIRECTION ( 'NONE',  ( -1.000000000000000000, -0.0000000000000000000, -0.0000000000000000000 ) ) ;
#91 = CARTESIAN_POINT ( 'NONE',  ( -9.999999999999998200, 2.499999999999998700, -500.0000000000000000 ) ) ;
#92 = LINE ( 'NONE', #91, #24 ) ;
#93 = DIRECTION ( 'NONE',  ( -0.0000000000000000000, -0.0000000000000000000, -1.000000000000000000 ) ) ;
#94 = CARTESIAN_POINT ( 'NONE',  ( -9.999999999999998200, -2.500000000000001300, 500.0000000000000000 ) ) ;
#95 = LINE ( 'NONE', #94, #36 ) ;
#96 = DIRECTION ( 'NONE',  ( 0.0000000000000000000, -1.000000000000000000, 0.0000000000000000000 ) ) ;
#97 = CARTESIAN_POINT ( 'NONE',  ( -9.999999999999998200, 2.499999999999998700, -500.0000000000000000 ) ) ;
#98 = LINE ( 'NONE', #97, #28 ) ;
#99 = DIRECTION ( 'NONE',  ( -1.000000000000000000, -0.0000000000000000000, -0.0000000000000000000 ) ) ;
#100 = CARTESIAN_POINT ( 'NONE',  ( -9.999999999999998200, 2.499999999999998700, 500.0000000000000000 ) ) ;
#101 = LINE ( 'NONE', #100, #15 ) ;
#102 = PLANE ( 'NONE',  #201 ) ;
#103 = DIRECTION ( 'NONE',  ( 3.469446951953614200E-016, 1.000000000000000000, -0.0000000000000000000 ) ) ;
#104 = CARTESIAN_POINT ( 'NONE',  ( 10.00000000000000000, 2.499999999999998700, 500.0000000000000000 ) ) ;
#105 = LINE ( 'NONE', #104, #42 ) ;
#106 = CARTESIAN_POINT ( 'NONE',  ( -9.999999999999998200, 2.499999999999998700, -500.0000000000000000 ) ) ;
#107 = CARTESIAN_POINT ( 'NONE',  ( 9.999999999999998200, -2.500000000000001300, -500.0000000000000000 ) ) ;
#108 = CARTESIAN_POINT ( 'NONE',  ( -9.999999999999998200, -2.500000000000001300, -500.0000000000000000 ) ) ;
#109 = CARTESIAN_POINT ( 'NONE',  ( 9.999999999999998200, -2.500000000000001300, 500.0000000000000000 ) ) ;
#110 = CARTESIAN_POINT ( 'NONE',  ( -9.999999999999998200, -2.500000000000001300, 500.0000000000000000 ) ) ;
#111 = CARTESIAN_POINT ( 'NONE',  ( 10.00000000000000000, 2.499999999999998700, -500.0000000000000000 ) ) ;
#112 = CARTESIAN_POINT ( 'NONE',  ( -9.999999999999998200, 2.499999999999998700, 500.0000000000000000 ) ) ;
#113 = CARTESIAN_POINT ( 'NONE',  ( 10.00000000000000000, 2.499999999999998700, 500.0000000000000000 ) ) ;
#114 = DIRECTION ( 'NONE',  ( 1.000000000000000000, 0.0000000000000000000, 0.0000000000000000000 ) ) ;
#115 = CARTESIAN_POINT ( 'NONE',  ( -9.999999999999998200, -2.500000000000001300, 500.0000000000000000 ) ) ;
#116 = DIRECTION ( 'NONE',  ( -0.0000000000000000000, -0.0000000000000000000, -1.000000000000000000 ) ) ;
#117 = CARTESIAN_POINT ( 'NONE',  ( -9.999999999999998200, 2.499999999999998700, 500.0000000000000000 ) ) ;
#118 = LINE ( 'NONE', #117, #202 ) ;
#119 = DIRECTION ( 'NONE',  ( 0.0000000000000000000, -1.000000000000000000, 0.0000000000000000000 ) ) ;
#120 = CARTESIAN_POINT ( 'NONE',  ( -9.999999999999998200, 2.499999999999998700, 500.0000000000000000 ) ) ;
#121 = LINE ( 'NONE', #120, #198 ) ;
#122 = LINE ( 'NONE', #115, #197 ) ;
#123 = DIRECTION ( 'NONE',  ( -0.0000000000000000000, -0.0000000000000000000, -1.000000000000000000 ) ) ;
#124 = CARTESIAN_POINT ( 'NONE',  ( 10.00000000000000000, 2.499999999999998700, 500.0000000000000000 ) ) ;
#125 = LINE ( 'NONE', #124, #203 ) ;
#126 = VERTEX_POINT ( 'NONE', #112 ) ;
#127 = VERTEX_POINT ( 'NONE', #111 ) ;
#128 = VERTEX_POINT ( 'NONE', #110 ) ;
#129 = VERTEX_POINT ( 'NONE', #109 ) ;
#130 = VERTEX_POINT ( 'NONE', #108 ) ;
#131 = VERTEX_POINT ( 'NONE', #107 ) ;
#132 = VERTEX_POINT ( 'NONE', #113 ) ;
#133 = VERTEX_POINT ( 'NONE', #106 ) ;
#134 = ORIENTED_EDGE ( 'NONE', *, *, #144, .T. ) ;
#135 = EDGE_LOOP ( 'NONE', ( #74, #75, #76, #73 ) ) ;
#136 = EDGE_LOOP ( 'NONE', ( #134, #67, #63, #69 ) ) ;
#137 = EDGE_LOOP ( 'NONE', ( #70, #71, #72, #68 ) ) ;
#138 = ORIENTED_EDGE ( 'NONE', *, *, #142, .T. ) ;
#139 =( LENGTH_UNIT ( ) NAMED_UNIT ( * ) SI_UNIT ( .MILLI., .METRE. ) );
#140 = EDGE_CURVE ( 'NONE', #129, #132, #105, .T. ) ;
#141 = EDGE_CURVE ( 'NONE', #132, #126, #101, .T. ) ;
#142 = EDGE_CURVE ( 'NONE', #133, #130, #98, .T. ) ;
#143 = EDGE_CURVE ( 'NONE', #128, #130, #95, .T. ) ;
#144 = EDGE_CURVE ( 'NONE', #127, #133, #92, .T. ) ;
#145 = ADVANCED_FACE ( 'NONE', ( #200 ), #102, .F. ) ;
#146 = ADVANCED_FACE ( 'NONE', ( #35 ), #86, .F. ) ;
#147 = ADVANCED_FACE ( 'NONE', ( #21 ), #207, .F. ) ;
#148 = ADVANCED_FACE ( 'NONE', ( #14 ), #215, .F. ) ;
#149 = ADVANCED_FACE ( 'NONE', ( #16 ), #211, .F. ) ;
#150 = ADVANCED_FACE ( 'NONE', ( #20 ), #220, .T. ) ;
#151 = CC_DESIGN_PERSON_AND_ORGANIZATION_ASSIGNMENT ( #166, #167, ( #204 ) ) ;
#152 = EDGE_CURVE ( 'NONE', #131, #127, #155, .T. ) ;
#153 = DIRECTION ( 'NONE',  ( 3.469446951953614200E-016, 1.000000000000000000, -0.0000000000000000000 ) ) ;
#154 = LINE ( 'NONE', #156, #27 ) ;
#155 = LINE ( 'NONE', #157, #34 ) ;
#156 = CARTESIAN_POINT ( 'NONE',  ( 9.999999999999998200, -2.500000000000001300, 500.0000000000000000 ) ) ;
#157 = CARTESIAN_POINT ( 'NONE',  ( 10.00000000000000000, 2.499999999999998700, -500.0000000000000000 ) ) ;
#158 = DIRECTION ( 'NONE',  ( -0.0000000000000000000, -0.0000000000000000000, -1.000000000000000000 ) ) ;
#159 =( NAMED_UNIT ( * ) SI_UNIT ( $, .STERADIAN. ) SOLID_ANGLE_UNIT ( ) );
#160 = APPLICATION_PROTOCOL_DEFINITION ( 'international standard', 'config_control_design', 1994, #50 ) ;
#161 = CARTESIAN_POINT ( 'NONE',  ( 0.0000000000000000000, 0.0000000000000000000, 0.0000000000000000000 ) ) ;
#162 = DIRECTION ( 'NONE',  ( 0.0000000000000000000, 0.0000000000000000000, 1.000000000000000000 ) ) ;
#163 = DIRECTION ( 'NONE',  ( 1.000000000000000000, 0.0000000000000000000, 0.0000000000000000000 ) ) ;
#164 = SHAPE_DEFINITION_REPRESENTATION ( #80, #46 ) ;
#165 = MECHANICAL_CONTEXT ( 'NONE', #50, 'mechanical' ) ;
#166 = PERSON_AND_ORGANIZATION ( #47, #38 ) ;
#167 = PERSON_AND_ORGANIZATION_ROLE ( 'design_owner' ) ;
#168 = APPLICATION_PROTOCOL_DEFINITION ( 'international standard', 'config_control_design', 1994, #49 ) ;
#169 = PERSON_AND_ORGANIZATION ( #47, #38 ) ;
#170 = APPROVAL_STATUS ( 'not_yet_approved' ) ;
#171 = APPROVAL_ROLE ( '' ) ;
#172 = DATE_AND_TIME ( #32, #2 ) ;
#173 = APPROVAL_DATE_TIME ( #172, #1 ) ;
#174 = PERSON_AND_ORGANIZATION ( #47, #38 ) ;
#175 = PERSON_AND_ORGANIZATION_ROLE ( 'creator' ) ;
#176 = DATE_AND_TIME ( #33, #4 ) ;
#177 = DATE_TIME_ROLE ( 'creation_date' ) ;
#178 = PERSON_AND_ORGANIZATION ( #47, #38 ) ;
#179 = APPROVAL_STATUS ( 'not_yet_approved' ) ;
#180 = APPROVAL_ROLE ( '' ) ;
#181 = DATE_AND_TIME ( #222, #7 ) ;
#182 = APPROVAL_DATE_TIME ( #181, #6 ) ;
#183 = PERSON_AND_ORGANIZATION ( #47, #38 ) ;
#184 = PERSON_AND_ORGANIZATION_ROLE ( 'creator' ) ;
#185 = PERSON_AND_ORGANIZATION ( #47, #38 ) ;
#186 = PERSON_AND_ORGANIZATION_ROLE ( 'design_supplier' ) ;
#187 = SECURITY_CLASSIFICATION_LEVEL ( 'unclassified' ) ;
#188 = PERSON_AND_ORGANIZATION ( #47, #38 ) ;
#189 = PERSON_AND_ORGANIZATION_ROLE ( 'classification_officer' ) ;
#190 = DATE_AND_TIME ( #231, #11 ) ;
#191 = DATE_TIME_ROLE ( 'classification_date' ) ;
#192 = PERSON_AND_ORGANIZATION ( #47, #38 ) ;
#193 = APPROVAL_STATUS ( 'not_yet_approved' ) ;
#194 = APPROVAL_ROLE ( '' ) ;
#195 = DATE_AND_TIME ( #224, #77 ) ;
#196 = APPROVAL_DATE_TIME ( #195, #13 ) ;
#197 = VECTOR ( 'NONE', #114, 1000.000000000000000 ) ;
#198 = VECTOR ( 'NONE', #119, 1000.000000000000000 ) ;
#199 = CLOSED_SHELL ( 'NONE', ( #145, #146, #148, #149, #150, #147 ) ) ;
#200 = FACE_OUTER_BOUND ( 'NONE', #65, .T. ) ;
#201 = AXIS2_PLACEMENT_3D ( 'NONE', #89, #88, #87 ) ;
#202 = VECTOR ( 'NONE', #116, 1000.000000000000000 ) ;
#203 = VECTOR ( 'NONE', #123, 1000.000000000000000 ) ;
#204 = PRODUCT ( 'sone3D', 'sone3D', '', ( #165 ) ) ;
#205 = DIRECTION ( 'NONE',  ( 1.000000000000000000, 0.0000000000000000000, 0.0000000000000000000 ) ) ;
#206 = CARTESIAN_POINT ( 'NONE',  ( 0.0000000000000000000, 0.0000000000000000000, -500.0000000000000000 ) ) ;
#207 = PLANE ( 'NONE',  #29 ) ;
#208 = CARTESIAN_POINT ( 'NONE',  ( 10.00000000000000000, 2.499999999999998700, 500.0000000000000000 ) ) ;
#209 = CARTESIAN_POINT ( 'NONE',  ( -9.999999999999998200, 2.499999999999998700, 500.0000000000000000 ) ) ;
#210 = DIRECTION ( 'NONE',  ( -3.469446951953614200E-016, -1.000000000000000000, 0.0000000000000000000 ) ) ;
#211 = PLANE ( 'NONE',  #26 ) ;
#212 = DIRECTION ( 'NONE',  ( -1.000000000000000000, 3.469446951953614200E-016, 0.0000000000000000000 ) ) ;
#213 = DIRECTION ( 'NONE',  ( 1.000000000000000000, 0.0000000000000000000, 0.0000000000000000000 ) ) ;
#214 = DIRECTION ( 'NONE',  ( -0.0000000000000000000, 0.0000000000000000000, 1.000000000000000000 ) ) ;
#215 = PLANE ( 'NONE',  #17 ) ;
#216 = DIRECTION ( 'NONE',  ( 0.0000000000000000000, -1.000000000000000000, 0.0000000000000000000 ) ) ;
#217 = DIRECTION ( 'NONE',  ( -0.0000000000000000000, 0.0000000000000000000, 1.000000000000000000 ) ) ;
#218 = DIRECTION ( 'NONE',  ( 0.0000000000000000000, -0.0000000000000000000, -1.000000000000000000 ) ) ;
#219 = CARTESIAN_POINT ( 'NONE',  ( 0.0000000000000000000, 0.0000000000000000000, 500.0000000000000000 ) ) ;
#220 = PLANE ( 'NONE',  #30 ) ;
#221 = PRODUCT_DEFINITION ( 'UNKNOWN', '', #23, #82 ) ;
#222 = CALENDAR_DATE ( 2015, 11, 8 ) ;
#223 = CC_DESIGN_SECURITY_CLASSIFICATION ( #230, ( #23 ) ) ;
#224 = CALENDAR_DATE ( 2015, 11, 8 ) ;
#225 = APPROVAL_PERSON_ORGANIZATION ( #192, #13, #194 ) ;
#226 = COORDINATED_UNIVERSAL_TIME_OFFSET ( 9, 0, .AHEAD. ) ;
#227 = COORDINATED_UNIVERSAL_TIME_OFFSET ( 9, 0, .AHEAD. ) ;
#228 = CC_DESIGN_APPROVAL ( #13, ( #230 ) ) ;
#229 = CC_DESIGN_APPROVAL ( #6, ( #23 ) ) ;
#230 = SECURITY_CLASSIFICATION ( '', '', #187 ) ;
#231 = CALENDAR_DATE ( 2015, 11, 8 ) ;
#232 =( NAMED_UNIT ( * ) PLANE_ANGLE_UNIT ( ) SI_UNIT ( $, .RADIAN. ) );
#233 = EDGE_CURVE ( 'NONE', #129, #131, #154, .T. ) ;
#234 = EDGE_CURVE ( 'NONE', #130, #131, #237, .T. ) ;
#235 = CARTESIAN_POINT ( 'NONE',  ( -9.999999999999998200, -2.500000000000001300, -500.0000000000000000 ) ) ;
#236 = DIRECTION ( 'NONE',  ( 1.000000000000000000, 0.0000000000000000000, 0.0000000000000000000 ) ) ;
#237 = LINE ( 'NONE', #235, #19 ) ;
ENDSEC;
END-ISO-10303-21;
