ISO-10303-21;
HEADER;
FILE_DESCRIPTION (( 'STEP AP203' ),
    '1' );
FILE_NAME ('sone3D.STEP',
    '2015-08-11T10:12:00',
    ( '' ),
    ( '' ),
    'SwSTEP 2.0',
    'SolidWorks 2012',
    '' );
FILE_SCHEMA (( 'CONFIG_CONTROL_DESIGN' ));
ENDSEC;

DATA;
#1 = APPLICATION_CONTEXT ( 'configuration controlled 3d designs of mechanical parts and assemblies' ) ;
#2 = APPLICATION_CONTEXT ( 'configuration controlled 3d designs of mechanical parts and assemblies' ) ;
#3 = VECTOR ( 'NONE', #35, 1000.000000000000000 ) ;
#4 = VECTOR ( 'NONE', #60, 1000.000000000000000 ) ;
#5 = APPROVAL_PERSON_ORGANIZATION ( #118, #105, #235 ) ;
#6 = CALENDAR_DATE ( 2015, 11, 8 ) ;
#7 = AXIS2_PLACEMENT_3D ( 'NONE', #41, #43, #44 ) ;
#8 = COORDINATED_UNIVERSAL_TIME_OFFSET ( 9, 0, .AHEAD. ) ;
#9 = FACE_OUTER_BOUND ( 'NONE', #207, .T. ) ;
#10 = AXIS2_PLACEMENT_3D ( 'NONE', #30, #95, #152 ) ;
#11 = FACE_OUTER_BOUND ( 'NONE', #206, .T. ) ;
#12 = AXIS2_PLACEMENT_3D ( 'NONE', #84, #85, #86 ) ;
#13 = VECTOR ( 'NONE', #64, 1000.000000000000000 ) ;
#14 = VECTOR ( 'NONE', #83, 1000.000000000000000 ) ;
#15 = VECTOR ( 'NONE', #73, 1000.000000000000000 ) ;
#16 = AXIS2_PLACEMENT_3D ( 'NONE', #88, #89, #90 ) ;
#17 = VECTOR ( 'NONE', #67, 1000.000000000000000 ) ;
#18 = VECTOR ( 'NONE', #76, 1000.000000000000000 ) ;
#19 = FACE_OUTER_BOUND ( 'NONE', #211, .T. ) ;
#20 = FACE_OUTER_BOUND ( 'NONE', #210, .T. ) ;
#21 = VECTOR ( 'NONE', #70, 1000.000000000000000 ) ;
#22 = AXIS2_PLACEMENT_3D ( 'NONE', #217, #218, #219 ) ;
#23 = ORGANIZATION ( 'UNSPECIFIED', 'UNSPECIFIED', '' ) ;
#24 = VECTOR ( 'NONE', #42, 1000.000000000000000 ) ;
#25 = AXIS2_PLACEMENT_3D ( 'NONE', #47, #48, #49 ) ;
#26 = VECTOR ( 'NONE', #40, 1000.000000000000000 ) ;
#27 = VECTOR ( 'NONE', #79, 1000.000000000000000 ) ;
#28 = FACE_OUTER_BOUND ( 'NONE', #208, .T. ) ;
#29 = AXIS2_PLACEMENT_3D ( 'NONE', #221, #31, #32 ) ;
#30 = CARTESIAN_POINT ( 'NONE',  ( 0.0000000000000000000, 0.0000000000000000000, 0.0000000000000000000 ) ) ;
#31 = DIRECTION ( 'NONE',  ( 1.000000000000000000, 1.734723475976807100E-016, -0.0000000000000000000 ) ) ;
#32 = DIRECTION ( 'NONE',  ( -1.734723475976807100E-016, 1.000000000000000000, 0.0000000000000000000 ) ) ;
#33 = LINE ( 'NONE', #34, #3 ) ;
#34 = CARTESIAN_POINT ( 'NONE',  ( -7.499999999999999100, 2.499999999999999600, -500.0000000000000000 ) ) ;
#35 = DIRECTION ( 'NONE',  ( -1.000000000000000000, -0.0000000000000000000, -0.0000000000000000000 ) ) ;
#36 = PLANE ( 'NONE',  #7 ) ;
#37 = LINE ( 'NONE', #38, #26 ) ;
#38 = CARTESIAN_POINT ( 'NONE',  ( -7.499999999999999100, 2.499999999999999600, 500.0000000000000000 ) ) ;
#39 = MECHANICAL_CONTEXT ( 'NONE', #2, 'mechanical' ) ;
#40 = DIRECTION ( 'NONE',  ( -1.000000000000000000, -0.0000000000000000000, -0.0000000000000000000 ) ) ;
#41 = CARTESIAN_POINT ( 'NONE',  ( 0.0000000000000000000, 0.0000000000000000000, -500.0000000000000000 ) ) ;
#42 = DIRECTION ( 'NONE',  ( 1.734723475976807100E-016, -1.000000000000000000, 0.0000000000000000000 ) ) ;
#43 = DIRECTION ( 'NONE',  ( -0.0000000000000000000, 0.0000000000000000000, 1.000000000000000000 ) ) ;
#44 = DIRECTION ( 'NONE',  ( 1.000000000000000000, 0.0000000000000000000, 0.0000000000000000000 ) ) ;
#45 = PLANE ( 'NONE',  #25 ) ;
#46 = CARTESIAN_POINT ( 'NONE',  ( -7.499999999999999100, 2.499999999999999600, -500.0000000000000000 ) ) ;
#47 = CARTESIAN_POINT ( 'NONE',  ( 7.500000000000000900, 2.499999999999999600, 500.0000000000000000 ) ) ;
#48 = DIRECTION ( 'NONE',  ( -1.000000000000000000, 0.0000000000000000000, 0.0000000000000000000 ) ) ;
#49 = DIRECTION ( 'NONE',  ( 0.0000000000000000000, 0.0000000000000000000, 1.000000000000000000 ) ) ;
#50 = CARTESIAN_POINT ( 'NONE',  ( -7.499999999999999100, 2.499999999999999600, 500.0000000000000000 ) ) ;
#51 = CARTESIAN_POINT ( 'NONE',  ( -7.499999999999998200, -2.500000000000000400, 500.0000000000000000 ) ) ;
#52 = CARTESIAN_POINT ( 'NONE',  ( -7.499999999999999100, 2.499999999999999600, -500.0000000000000000 ) ) ;
#53 = CARTESIAN_POINT ( 'NONE',  ( -7.499999999999998200, -2.500000000000000400, -500.0000000000000000 ) ) ;
#54 = CARTESIAN_POINT ( 'NONE',  ( 7.500000000000000900, -2.500000000000000400, -500.0000000000000000 ) ) ;
#55 = CARTESIAN_POINT ( 'NONE',  ( 7.500000000000000900, -2.500000000000000400, 500.0000000000000000 ) ) ;
#56 = CARTESIAN_POINT ( 'NONE',  ( 7.500000000000000900, 2.499999999999999600, -500.0000000000000000 ) ) ;
#57 = CARTESIAN_POINT ( 'NONE',  ( 7.500000000000000900, 2.499999999999999600, 500.0000000000000000 ) ) ;
#58 = LINE ( 'NONE', #59, #4 ) ;
#59 = CARTESIAN_POINT ( 'NONE',  ( 7.500000000000000900, 2.499999999999999600, 500.0000000000000000 ) ) ;
#60 = DIRECTION ( 'NONE',  ( -0.0000000000000000000, 1.000000000000000000, -0.0000000000000000000 ) ) ;
#61 = PLANE ( 'NONE',  #12 ) ;
#62 = LINE ( 'NONE', #63, #13 ) ;
#63 = CARTESIAN_POINT ( 'NONE',  ( 7.500000000000000900, 2.499999999999999600, 500.0000000000000000 ) ) ;
#64 = DIRECTION ( 'NONE',  ( -0.0000000000000000000, -0.0000000000000000000, -1.000000000000000000 ) ) ;
#65 = LINE ( 'NONE', #66, #17 ) ;
#66 = CARTESIAN_POINT ( 'NONE',  ( -7.499999999999998200, -2.500000000000000400, 500.0000000000000000 ) ) ;
#67 = DIRECTION ( 'NONE',  ( 1.000000000000000000, 0.0000000000000000000, 0.0000000000000000000 ) ) ;
#68 = LINE ( 'NONE', #69, #21 ) ;
#69 = CARTESIAN_POINT ( 'NONE',  ( -7.499999999999998200, -2.500000000000000400, -500.0000000000000000 ) ) ;
#70 = DIRECTION ( 'NONE',  ( 1.000000000000000000, 0.0000000000000000000, 0.0000000000000000000 ) ) ;
#71 = LINE ( 'NONE', #72, #15 ) ;
#72 = CARTESIAN_POINT ( 'NONE',  ( 7.500000000000000900, -2.500000000000000400, 500.0000000000000000 ) ) ;
#73 = DIRECTION ( 'NONE',  ( -0.0000000000000000000, -0.0000000000000000000, -1.000000000000000000 ) ) ;
#74 = LINE ( 'NONE', #75, #18 ) ;
#75 = CARTESIAN_POINT ( 'NONE',  ( -7.499999999999999100, 2.499999999999999600, 500.0000000000000000 ) ) ;
#76 = DIRECTION ( 'NONE',  ( -0.0000000000000000000, -0.0000000000000000000, -1.000000000000000000 ) ) ;
#77 = LINE ( 'NONE', #78, #27 ) ;
#78 = CARTESIAN_POINT ( 'NONE',  ( -7.499999999999999100, 2.499999999999999600, 500.0000000000000000 ) ) ;
#79 = DIRECTION ( 'NONE',  ( 1.734723475976807100E-016, -1.000000000000000000, 0.0000000000000000000 ) ) ;
#80 = LINE ( 'NONE', #46, #24 ) ;
#81 = LINE ( 'NONE', #82, #14 ) ;
#82 = CARTESIAN_POINT ( 'NONE',  ( -7.499999999999998200, -2.500000000000000400, 500.0000000000000000 ) ) ;
#83 = DIRECTION ( 'NONE',  ( -0.0000000000000000000, -0.0000000000000000000, -1.000000000000000000 ) ) ;
#84 = CARTESIAN_POINT ( 'NONE',  ( -7.499999999999999100, 2.499999999999999600, 500.0000000000000000 ) ) ;
#85 = DIRECTION ( 'NONE',  ( 0.0000000000000000000, -1.000000000000000000, 0.0000000000000000000 ) ) ;
#86 = DIRECTION ( 'NONE',  ( 0.0000000000000000000, -0.0000000000000000000, -1.000000000000000000 ) ) ;
#87 = PLANE ( 'NONE',  #16 ) ;
#88 = CARTESIAN_POINT ( 'NONE',  ( 0.0000000000000000000, 0.0000000000000000000, 500.0000000000000000 ) ) ;
#89 = DIRECTION ( 'NONE',  ( -0.0000000000000000000, 0.0000000000000000000, 1.000000000000000000 ) ) ;
#90 = DIRECTION ( 'NONE',  ( 1.000000000000000000, 0.0000000000000000000, 0.0000000000000000000 ) ) ;
#91 =( LENGTH_UNIT ( ) NAMED_UNIT ( * ) SI_UNIT ( .MILLI., .METRE. ) );
#92 =( NAMED_UNIT ( * ) SI_UNIT ( $, .STERADIAN. ) SOLID_ANGLE_UNIT ( ) );
#93 =( NAMED_UNIT ( * ) PLANE_ANGLE_UNIT ( ) SI_UNIT ( $, .RADIAN. ) );
#94 = PERSON_AND_ORGANIZATION ( #121, #23 ) ;
#95 = DIRECTION ( 'NONE',  ( 0.0000000000000000000, 0.0000000000000000000, 1.000000000000000000 ) ) ;
#96 = EDGE_CURVE ( 'NONE', #202, #204, #213, .T. ) ;
#97 = ADVANCED_FACE ( 'NONE', ( #149 ), #216, .F. ) ;
#98 = ADVANCED_FACE ( 'NONE', ( #20 ), #220, .F. ) ;
#99 = EDGE_CURVE ( 'NONE', #204, #200, #33, .T. ) ;
#100 = EDGE_CURVE ( 'NONE', #205, #198, #37, .T. ) ;
#101 = ADVANCED_FACE ( 'NONE', ( #28 ), #36, .F. ) ;
#102 =( GEOMETRIC_REPRESENTATION_CONTEXT ( 3 ) GLOBAL_UNCERTAINTY_ASSIGNED_CONTEXT ( ( #119 ) ) GLOBAL_UNIT_ASSIGNED_CONTEXT ( ( #91, #93, #92 ) ) REPRESENTATION_CONTEXT ( 'NONE', 'WORKASPACE' ) );
#103 = CC_DESIGN_PERSON_AND_ORGANIZATION_ASSIGNMENT ( #94, #117, ( #170 ) ) ;
#104 = PRODUCT_DEFINITION ( 'UNKNOWN', '', #159, #223 ) ;
#105 = APPROVAL ( #234, 'UNSPECIFIED' ) ;
#106 = LOCAL_TIME ( 19, 12, 0.0000000000000000000, #8 ) ;
#107 = CC_DESIGN_PERSON_AND_ORGANIZATION_ASSIGNMENT ( #125, #126, ( #104 ) ) ;
#108 = LOCAL_TIME ( 19, 12, 0.0000000000000000000, #165 ) ;
#109 = CC_DESIGN_DATE_AND_TIME_ASSIGNMENT ( #127, #128, ( #104 ) ) ;
#110 = APPROVAL ( #130, 'UNSPECIFIED' ) ;
#111 = LOCAL_TIME ( 19, 12, 0.0000000000000000000, #166 ) ;
#112 = CC_DESIGN_PERSON_AND_ORGANIZATION_ASSIGNMENT ( #134, #135, ( #159 ) ) ;
#113 = CC_DESIGN_PERSON_AND_ORGANIZATION_ASSIGNMENT ( #136, #137, ( #159 ) ) ;
#114 = CC_DESIGN_PERSON_AND_ORGANIZATION_ASSIGNMENT ( #139, #140, ( #167 ) ) ;
#115 = LOCAL_TIME ( 19, 12, 0.0000000000000000000, #169 ) ;
#116 = APPLICATION_PROTOCOL_DEFINITION ( 'international standard', 'config_control_design', 1994, #1 ) ;
#117 = PERSON_AND_ORGANIZATION_ROLE ( 'design_owner' ) ;
#118 = PERSON_AND_ORGANIZATION ( #121, #23 ) ;
#119 = UNCERTAINTY_MEASURE_WITH_UNIT (LENGTH_MEASURE( 1.000000000000000100E-005 ), #91, 'distance_accuracy_value', 'NONE');
#120 = ADVANCED_BREP_SHAPE_REPRESENTATION ( 'sone3D', ( #224, #10 ), #102 ) ;
#121 = PERSON ( 'UNSPECIFIED', 'UNSPECIFIED', 'UNSPECIFIED', ('UNSPECIFIED'), ('UNSPECIFIED'), ('UNSPECIFIED') ) ;
#122 = ADVANCED_FACE ( 'NONE', ( #19 ), #45, .F. ) ;
#123 = DATE_AND_TIME ( #6, #106 ) ;
#124 = APPROVAL_DATE_TIME ( #123, #105 ) ;
#125 = PERSON_AND_ORGANIZATION ( #121, #23 ) ;
#126 = PERSON_AND_ORGANIZATION_ROLE ( 'creator' ) ;
#127 = DATE_AND_TIME ( #162, #108 ) ;
#128 = DATE_TIME_ROLE ( 'creation_date' ) ;
#129 = PERSON_AND_ORGANIZATION ( #121, #23 ) ;
#130 = APPROVAL_STATUS ( 'not_yet_approved' ) ;
#131 = APPROVAL_ROLE ( '' ) ;
#132 = DATE_AND_TIME ( #163, #111 ) ;
#133 = APPROVAL_DATE_TIME ( #132, #110 ) ;
#134 = PERSON_AND_ORGANIZATION ( #121, #23 ) ;
#135 = PERSON_AND_ORGANIZATION_ROLE ( 'creator' ) ;
#136 = PERSON_AND_ORGANIZATION ( #121, #23 ) ;
#137 = PERSON_AND_ORGANIZATION_ROLE ( 'design_supplier' ) ;
#138 = SECURITY_CLASSIFICATION_LEVEL ( 'unclassified' ) ;
#139 = PERSON_AND_ORGANIZATION ( #121, #23 ) ;
#140 = PERSON_AND_ORGANIZATION_ROLE ( 'classification_officer' ) ;
#141 = DATE_AND_TIME ( #160, #115 ) ;
#142 = DATE_TIME_ROLE ( 'classification_date' ) ;
#143 = PERSON_AND_ORGANIZATION ( #121, #23 ) ;
#144 = APPROVAL_STATUS ( 'not_yet_approved' ) ;
#145 = APPROVAL_ROLE ( '' ) ;
#146 = DATE_AND_TIME ( #168, #173 ) ;
#147 = APPROVAL_DATE_TIME ( #146, #172 ) ;
#148 = CLOSED_SHELL ( 'NONE', ( #98, #97, #122, #236, #237, #101 ) ) ;
#149 = FACE_OUTER_BOUND ( 'NONE', #212, .T. ) ;
#150 = VECTOR ( 'NONE', #215, 1000.000000000000000 ) ;
#151 = SHAPE_DEFINITION_REPRESENTATION ( #222, #120 ) ;
#152 = DIRECTION ( 'NONE',  ( 1.000000000000000000, 0.0000000000000000000, 0.0000000000000000000 ) ) ;
#153 = APPLICATION_PROTOCOL_DEFINITION ( 'international standard', 'config_control_design', 1994, #2 ) ;
#154 = CC_DESIGN_APPROVAL ( #105, ( #104 ) ) ;
#155 = COORDINATED_UNIVERSAL_TIME_OFFSET ( 9, 0, .AHEAD. ) ;
#156 = CC_DESIGN_APPROVAL ( #110, ( #159 ) ) ;
#157 = CC_DESIGN_APPROVAL ( #172, ( #167 ) ) ;
#158 = CC_DESIGN_SECURITY_CLASSIFICATION ( #167, ( #159 ) ) ;
#159 = PRODUCT_DEFINITION_FORMATION_WITH_SPECIFIED_SOURCE ( 'ANY', '', #170, .NOT_KNOWN. ) ;
#160 = CALENDAR_DATE ( 2015, 11, 8 ) ;
#161 = APPROVAL_PERSON_ORGANIZATION ( #129, #110, #131 ) ;
#162 = CALENDAR_DATE ( 2015, 11, 8 ) ;
#163 = CALENDAR_DATE ( 2015, 11, 8 ) ;
#164 = APPROVAL_PERSON_ORGANIZATION ( #143, #172, #145 ) ;
#165 = COORDINATED_UNIVERSAL_TIME_OFFSET ( 9, 0, .AHEAD. ) ;
#166 = COORDINATED_UNIVERSAL_TIME_OFFSET ( 9, 0, .AHEAD. ) ;
#167 = SECURITY_CLASSIFICATION ( '', '', #138 ) ;
#168 = CALENDAR_DATE ( 2015, 11, 8 ) ;
#169 = COORDINATED_UNIVERSAL_TIME_OFFSET ( 9, 0, .AHEAD. ) ;
#170 = PRODUCT ( 'sone3D', 'sone3D', '', ( #39 ) ) ;
#171 = CC_DESIGN_DATE_AND_TIME_ASSIGNMENT ( #141, #142, ( #167 ) ) ;
#172 = APPROVAL ( #144, 'UNSPECIFIED' ) ;
#173 = LOCAL_TIME ( 19, 12, 0.0000000000000000000, #155 ) ;
#174 = PRODUCT_RELATED_PRODUCT_CATEGORY ( 'detail', '', ( #170 ) ) ;
#175 = ORIENTED_EDGE ( 'NONE', *, *, #232, .T. ) ;
#176 = ORIENTED_EDGE ( 'NONE', *, *, #231, .F. ) ;
#177 = ORIENTED_EDGE ( 'NONE', *, *, #233, .F. ) ;
#178 = ORIENTED_EDGE ( 'NONE', *, *, #230, .T. ) ;
#179 = ORIENTED_EDGE ( 'NONE', *, *, #228, .T. ) ;
#180 = ORIENTED_EDGE ( 'NONE', *, *, #227, .F. ) ;
#181 = ORIENTED_EDGE ( 'NONE', *, *, #229, .F. ) ;
#182 = ORIENTED_EDGE ( 'NONE', *, *, #233, .T. ) ;
#183 = ORIENTED_EDGE ( 'NONE', *, *, #225, .F. ) ;
#184 = ORIENTED_EDGE ( 'NONE', *, *, #226, .F. ) ;
#185 = ORIENTED_EDGE ( 'NONE', *, *, #229, .T. ) ;
#186 = ORIENTED_EDGE ( 'NONE', *, *, #100, .F. ) ;
#187 = ORIENTED_EDGE ( 'NONE', *, *, #99, .T. ) ;
#188 = ORIENTED_EDGE ( 'NONE', *, *, #230, .F. ) ;
#189 = ORIENTED_EDGE ( 'NONE', *, *, #100, .T. ) ;
#190 = ORIENTED_EDGE ( 'NONE', *, *, #226, .T. ) ;
#191 = ORIENTED_EDGE ( 'NONE', *, *, #231, .T. ) ;
#192 = ORIENTED_EDGE ( 'NONE', *, *, #227, .T. ) ;
#193 = ORIENTED_EDGE ( 'NONE', *, *, #225, .T. ) ;
#194 = ORIENTED_EDGE ( 'NONE', *, *, #228, .F. ) ;
#195 = ORIENTED_EDGE ( 'NONE', *, *, #232, .F. ) ;
#196 = ORIENTED_EDGE ( 'NONE', *, *, #99, .F. ) ;
#197 = ORIENTED_EDGE ( 'NONE', *, *, #96, .F. ) ;
#198 = VERTEX_POINT ( 'NONE', #50 ) ;
#199 = VERTEX_POINT ( 'NONE', #51 ) ;
#200 = VERTEX_POINT ( 'NONE', #52 ) ;
#201 = VERTEX_POINT ( 'NONE', #53 ) ;
#202 = VERTEX_POINT ( 'NONE', #54 ) ;
#203 = VERTEX_POINT ( 'NONE', #55 ) ;
#204 = VERTEX_POINT ( 'NONE', #56 ) ;
#205 = VERTEX_POINT ( 'NONE', #57 ) ;
#206 = EDGE_LOOP ( 'NONE', ( #191, #192, #193, #189 ) ) ;
#207 = EDGE_LOOP ( 'NONE', ( #187, #188, #186, #190 ) ) ;
#208 = EDGE_LOOP ( 'NONE', ( #195, #196, #197, #194 ) ) ;
#209 = ORIENTED_EDGE ( 'NONE', *, *, #96, .T. ) ;
#210 = EDGE_LOOP ( 'NONE', ( #175, #177, #176, #178 ) ) ;
#211 = EDGE_LOOP ( 'NONE', ( #209, #184, #183, #185 ) ) ;
#212 = EDGE_LOOP ( 'NONE', ( #179, #181, #180, #182 ) ) ;
#213 = LINE ( 'NONE', #214, #150 ) ;
#214 = CARTESIAN_POINT ( 'NONE',  ( 7.500000000000000900, 2.499999999999999600, -500.0000000000000000 ) ) ;
#215 = DIRECTION ( 'NONE',  ( -0.0000000000000000000, 1.000000000000000000, -0.0000000000000000000 ) ) ;
#216 = PLANE ( 'NONE',  #22 ) ;
#217 = CARTESIAN_POINT ( 'NONE',  ( -7.499999999999998200, -2.500000000000000400, 500.0000000000000000 ) ) ;
#218 = DIRECTION ( 'NONE',  ( 0.0000000000000000000, 1.000000000000000000, 0.0000000000000000000 ) ) ;
#219 = DIRECTION ( 'NONE',  ( 0.0000000000000000000, -0.0000000000000000000, 1.000000000000000000 ) ) ;
#220 = PLANE ( 'NONE',  #29 ) ;
#221 = CARTESIAN_POINT ( 'NONE',  ( -7.499999999999999100, 2.499999999999999600, 500.0000000000000000 ) ) ;
#222 = PRODUCT_DEFINITION_SHAPE ( 'NONE', 'NONE',  #104 ) ;
#223 = DESIGN_CONTEXT ( 'detailed design', #1, 'design' ) ;
#224 = MANIFOLD_SOLID_BREP ( 'ÎÞ½ - µoµ1', #148 ) ;
#225 = EDGE_CURVE ( 'NONE', #203, #205, #58, .T. ) ;
#226 = EDGE_CURVE ( 'NONE', #205, #204, #62, .T. ) ;
#227 = EDGE_CURVE ( 'NONE', #199, #203, #65, .T. ) ;
#228 = EDGE_CURVE ( 'NONE', #201, #202, #68, .T. ) ;
#229 = EDGE_CURVE ( 'NONE', #203, #202, #71, .T. ) ;
#230 = EDGE_CURVE ( 'NONE', #198, #200, #74, .T. ) ;
#231 = EDGE_CURVE ( 'NONE', #198, #199, #77, .T. ) ;
#232 = EDGE_CURVE ( 'NONE', #200, #201, #80, .T. ) ;
#233 = EDGE_CURVE ( 'NONE', #199, #201, #81, .T. ) ;
#234 = APPROVAL_STATUS ( 'not_yet_approved' ) ;
#235 = APPROVAL_ROLE ( '' ) ;
#236 = ADVANCED_FACE ( 'NONE', ( #9 ), #61, .F. ) ;
#237 = ADVANCED_FACE ( 'NONE', ( #11 ), #87, .T. ) ;
ENDSEC;
END-ISO-10303-21;
