ISO-10303-21;
HEADER;
FILE_DESCRIPTION (( 'STEP AP203' ),
    '1' );
FILE_NAME ('sone3D.STEP',
    '2015-08-11T10:11:39',
    ( '' ),
    ( '' ),
    'SwSTEP 2.0',
    'SolidWorks 2012',
    '' );
FILE_SCHEMA (( 'CONFIG_CONTROL_DESIGN' ));
ENDSEC;

DATA;
#1 =( GEOMETRIC_REPRESENTATION_CONTEXT ( 3 ) GLOBAL_UNCERTAINTY_ASSIGNED_CONTEXT ( ( #138 ) ) GLOBAL_UNIT_ASSIGNED_CONTEXT ( ( #83, #222, #218 ) ) REPRESENTATION_CONTEXT ( 'NONE', 'WORKASPACE' ) );
#2 = CC_DESIGN_APPROVAL ( #120, ( #193 ) ) ;
#3 = CALENDAR_DATE ( 2015, 11, 8 ) ;
#4 = CC_DESIGN_SECURITY_CLASSIFICATION ( #193, ( #196 ) ) ;
#5 = APPROVAL_PERSON_ORGANIZATION ( #231, #120, #226 ) ;
#6 = CALENDAR_DATE ( 2015, 11, 8 ) ;
#7 = COORDINATED_UNIVERSAL_TIME_OFFSET ( 9, 0, .AHEAD. ) ;
#8 = COORDINATED_UNIVERSAL_TIME_OFFSET ( 9, 0, .AHEAD. ) ;
#9 = ORIENTED_EDGE ( 'NONE', *, *, #114, .T. ) ;
#10 = ORIENTED_EDGE ( 'NONE', *, *, #134, .F. ) ;
#11 = CARTESIAN_POINT ( 'NONE',  ( -5.000000000000004400, -2.500000000000002200, -500.0000000000000000 ) ) ;
#12 = ORIENTED_EDGE ( 'NONE', *, *, #129, .F. ) ;
#13 = ORIENTED_EDGE ( 'NONE', *, *, #133, .T. ) ;
#14 = ORIENTED_EDGE ( 'NONE', *, *, #130, .T. ) ;
#15 = ORIENTED_EDGE ( 'NONE', *, *, #132, .T. ) ;
#16 = ORIENTED_EDGE ( 'NONE', *, *, #198, .T. ) ;
#17 = ORIENTED_EDGE ( 'NONE', *, *, #128, .F. ) ;
#18 = ORIENTED_EDGE ( 'NONE', *, *, #116, .F. ) ;
#19 = ORIENTED_EDGE ( 'NONE', *, *, #140, .F. ) ;
#20 = CARTESIAN_POINT ( 'NONE',  ( -5.000000000000004400, 2.499999999999998700, -500.0000000000000000 ) ) ;
#21 = ORIENTED_EDGE ( 'NONE', *, *, #117, .T. ) ;
#22 = DIRECTION ( 'NONE',  ( -1.000000000000000000, -0.0000000000000000000, -0.0000000000000000000 ) ) ;
#23 = CARTESIAN_POINT ( 'NONE',  ( 4.999999999999997300, 2.499999999999998700, -500.0000000000000000 ) ) ;
#24 = ORIENTED_EDGE ( 'NONE', *, *, #131, .F. ) ;
#25 = ORIENTED_EDGE ( 'NONE', *, *, #117, .F. ) ;
#26 = CARTESIAN_POINT ( 'NONE',  ( -5.000000000000004400, -2.500000000000002200, 500.0000000000000000 ) ) ;
#27 = ORIENTED_EDGE ( 'NONE', *, *, #129, .T. ) ;
#28 = CARTESIAN_POINT ( 'NONE',  ( 4.999999999999997300, 2.499999999999998700, -500.0000000000000000 ) ) ;
#29 = LINE ( 'NONE', #30, #185 ) ;
#30 = CARTESIAN_POINT ( 'NONE',  ( -5.000000000000004400, -2.500000000000002200, 500.0000000000000000 ) ) ;
#31 = CARTESIAN_POINT ( 'NONE',  ( -5.000000000000004400, 2.499999999999998700, -500.0000000000000000 ) ) ;
#32 = DIRECTION ( 'NONE',  ( 1.000000000000000000, -1.734723475976806800E-016, 0.0000000000000000000 ) ) ;
#33 = ORIENTED_EDGE ( 'NONE', *, *, #140, .T. ) ;
#34 = LINE ( 'NONE', #36, #159 ) ;
#35 = ORIENTED_EDGE ( 'NONE', *, *, #116, .T. ) ;
#36 = CARTESIAN_POINT ( 'NONE',  ( -5.000000000000004400, 2.499999999999998700, 500.0000000000000000 ) ) ;
#37 = CARTESIAN_POINT ( 'NONE',  ( 4.999999999999997300, 2.499999999999998700, 500.0000000000000000 ) ) ;
#38 = DIRECTION ( 'NONE',  ( -1.000000000000000000, -0.0000000000000000000, -0.0000000000000000000 ) ) ;
#39 = DIRECTION ( 'NONE',  ( -0.0000000000000000000, -0.0000000000000000000, -1.000000000000000000 ) ) ;
#40 = CARTESIAN_POINT ( 'NONE',  ( 4.999999999999997300, 2.499999999999998700, 500.0000000000000000 ) ) ;
#41 = PLANE ( 'NONE',  #169 ) ;
#42 = ORIENTED_EDGE ( 'NONE', *, *, #131, .T. ) ;
#43 = DIRECTION ( 'NONE',  ( -0.0000000000000000000, 1.000000000000000000, -0.0000000000000000000 ) ) ;
#44 = CARTESIAN_POINT ( 'NONE',  ( 4.999999999999997300, -2.500000000000004000, 500.0000000000000000 ) ) ;
#45 = LINE ( 'NONE', #44, #180 ) ;
#46 = CARTESIAN_POINT ( 'NONE',  ( 4.999999999999997300, -2.500000000000004000, -500.0000000000000000 ) ) ;
#47 = ORIENTED_EDGE ( 'NONE', *, *, #134, .T. ) ;
#48 = DIRECTION ( 'NONE',  ( 0.0000000000000000000, -1.000000000000000000, 0.0000000000000000000 ) ) ;
#49 = CARTESIAN_POINT ( 'NONE',  ( -5.000000000000004400, 2.499999999999998700, 500.0000000000000000 ) ) ;
#50 = LINE ( 'NONE', #40, #164 ) ;
#51 = LINE ( 'NONE', #20, #170 ) ;
#52 = ORIENTED_EDGE ( 'NONE', *, *, #133, .F. ) ;
#53 = LINE ( 'NONE', #23, #166 ) ;
#54 = CARTESIAN_POINT ( 'NONE',  ( -5.000000000000004400, -2.500000000000002200, -500.0000000000000000 ) ) ;
#55 = LINE ( 'NONE', #77, #171 ) ;
#56 = DIRECTION ( 'NONE',  ( 1.000000000000000000, -1.734723475976806800E-016, 0.0000000000000000000 ) ) ;
#57 = DIRECTION ( 'NONE',  ( -0.0000000000000000000, -0.0000000000000000000, -1.000000000000000000 ) ) ;
#58 = LINE ( 'NONE', #85, #191 ) ;
#59 = LINE ( 'NONE', #54, #192 ) ;
#60 = DIRECTION ( 'NONE',  ( 0.0000000000000000000, 0.0000000000000000000, 1.000000000000000000 ) ) ;
#61 = DIRECTION ( 'NONE',  ( -1.000000000000000000, 0.0000000000000000000, 0.0000000000000000000 ) ) ;
#62 = CARTESIAN_POINT ( 'NONE',  ( 4.999999999999997300, 2.499999999999998700, 500.0000000000000000 ) ) ;
#63 = LINE ( 'NONE', #49, #163 ) ;
#64 = ORIENTED_EDGE ( 'NONE', *, *, #128, .T. ) ;
#65 = DIRECTION ( 'NONE',  ( -0.0000000000000000000, -0.0000000000000000000, -1.000000000000000000 ) ) ;
#66 = VERTEX_POINT ( 'NONE', #26 ) ;
#67 = EDGE_LOOP ( 'NONE', ( #64, #24, #82, #21 ) ) ;
#68 = EDGE_LOOP ( 'NONE', ( #47, #12, #52, #9 ) ) ;
#69 = EDGE_LOOP ( 'NONE', ( #14, #15, #16, #13 ) ) ;
#70 = DIRECTION ( 'NONE',  ( -0.0000000000000000000, 1.000000000000000000, -0.0000000000000000000 ) ) ;
#71 = EDGE_LOOP ( 'NONE', ( #18, #10, #19, #17 ) ) ;
#72 = EDGE_LOOP ( 'NONE', ( #35, #25, #79, #27 ) ) ;
#73 = VERTEX_POINT ( 'NONE', #31 ) ;
#74 = VERTEX_POINT ( 'NONE', #28 ) ;
#75 = VERTEX_POINT ( 'NONE', #112 ) ;
#76 = EDGE_LOOP ( 'NONE', ( #33, #136, #135, #42 ) ) ;
#77 = CARTESIAN_POINT ( 'NONE',  ( -5.000000000000004400, 2.499999999999998700, 500.0000000000000000 ) ) ;
#78 = VERTEX_POINT ( 'NONE', #113 ) ;
#79 = ORIENTED_EDGE ( 'NONE', *, *, #130, .F. ) ;
#80 = VERTEX_POINT ( 'NONE', #11 ) ;
#81 = VERTEX_POINT ( 'NONE', #37 ) ;
#82 = ORIENTED_EDGE ( 'NONE', *, *, #132, .F. ) ;
#83 =( LENGTH_UNIT ( ) NAMED_UNIT ( * ) SI_UNIT ( .MILLI., .METRE. ) );
#84 = VERTEX_POINT ( 'NONE', #46 ) ;
#85 = CARTESIAN_POINT ( 'NONE',  ( 4.999999999999997300, 2.499999999999998700, 500.0000000000000000 ) ) ;
#86 = PLANE ( 'NONE',  #186 ) ;
#87 = CARTESIAN_POINT ( 'NONE',  ( -5.000000000000004400, 2.499999999999998700, 500.0000000000000000 ) ) ;
#88 = DIRECTION ( 'NONE',  ( 0.0000000000000000000, -1.000000000000000000, 0.0000000000000000000 ) ) ;
#89 = DIRECTION ( 'NONE',  ( 0.0000000000000000000, -0.0000000000000000000, -1.000000000000000000 ) ) ;
#90 = LINE ( 'NONE', #92, #168 ) ;
#91 = PLANE ( 'NONE',  #187 ) ;
#92 = CARTESIAN_POINT ( 'NONE',  ( -5.000000000000004400, 2.499999999999998700, -500.0000000000000000 ) ) ;
#93 = CARTESIAN_POINT ( 'NONE',  ( -5.000000000000004400, -2.500000000000002200, 500.0000000000000000 ) ) ;
#94 = DIRECTION ( 'NONE',  ( 0.0000000000000000000, -1.000000000000000000, 0.0000000000000000000 ) ) ;
#95 = LINE ( 'NONE', #93, #182 ) ;
#96 = DIRECTION ( 'NONE',  ( -0.0000000000000000000, -0.0000000000000000000, -1.000000000000000000 ) ) ;
#97 = CARTESIAN_POINT ( 'NONE',  ( 0.0000000000000000000, 0.0000000000000000000, 500.0000000000000000 ) ) ;
#98 = PLANE ( 'NONE',  #176 ) ;
#99 = DIRECTION ( 'NONE',  ( 0.0000000000000000000, 0.0000000000000000000, 1.000000000000000000 ) ) ;
#100 = DIRECTION ( 'NONE',  ( 1.000000000000000000, 0.0000000000000000000, -0.0000000000000000000 ) ) ;
#101 = CARTESIAN_POINT ( 'NONE',  ( -5.000000000000004400, 2.499999999999998700, 500.0000000000000000 ) ) ;
#102 = DIRECTION ( 'NONE',  ( 1.000000000000000000, 0.0000000000000000000, -0.0000000000000000000 ) ) ;
#103 = DIRECTION ( 'NONE',  ( -0.0000000000000000000, 0.0000000000000000000, -1.000000000000000000 ) ) ;
#104 = PLANE ( 'NONE',  #184 ) ;
#105 = DIRECTION ( 'NONE',  ( 1.734723475976806800E-016, 1.000000000000000000, -0.0000000000000000000 ) ) ;
#106 = DIRECTION ( 'NONE',  ( -1.000000000000000000, 1.734723475976806800E-016, 0.0000000000000000000 ) ) ;
#107 = CARTESIAN_POINT ( 'NONE',  ( -5.000000000000004400, -2.500000000000002200, 500.0000000000000000 ) ) ;
#108 = PLANE ( 'NONE',  #183 ) ;
#109 = CARTESIAN_POINT ( 'NONE',  ( 0.0000000000000000000, 0.0000000000000000000, -500.0000000000000000 ) ) ;
#110 = DIRECTION ( 'NONE',  ( 0.0000000000000000000, 0.0000000000000000000, 1.000000000000000000 ) ) ;
#111 = DIRECTION ( 'NONE',  ( 1.000000000000000000, 0.0000000000000000000, -0.0000000000000000000 ) ) ;
#112 = CARTESIAN_POINT ( 'NONE',  ( -5.000000000000004400, 2.499999999999998700, 500.0000000000000000 ) ) ;
#113 = CARTESIAN_POINT ( 'NONE',  ( 4.999999999999997300, -2.500000000000004000, 500.0000000000000000 ) ) ;
#114 = EDGE_CURVE ( 'NONE', #81, #74, #58, .T. ) ;
#115 = ADVANCED_FACE ( 'NONE', ( #189 ), #86, .F. ) ;
#116 = EDGE_CURVE ( 'NONE', #73, #80, #90, .T. ) ;
#117 = EDGE_CURVE ( 'NONE', #66, #80, #95, .T. ) ;
#118 = PRODUCT ( 'sone3D', 'sone3D', '', ( #201 ) ) ;
#119 = CC_DESIGN_DATE_AND_TIME_ASSIGNMENT ( #225, #230, ( #193 ) ) ;
#120 = APPROVAL ( #233, 'UNSPECIFIED' ) ;
#121 = LOCAL_TIME ( 19, 11, 39.00000000000000000, #7 ) ;
#122 = PRODUCT_RELATED_PRODUCT_CATEGORY ( 'detail', '', ( #118 ) ) ;
#123 = ADVANCED_FACE ( 'NONE', ( #194 ), #91, .T. ) ;
#124 = ADVANCED_FACE ( 'NONE', ( #175 ), #98, .F. ) ;
#125 = ADVANCED_FACE ( 'NONE', ( #167 ), #104, .F. ) ;
#126 = ADVANCED_FACE ( 'NONE', ( #162 ), #108, .F. ) ;
#127 = ADVANCED_FACE ( 'NONE', ( #181 ), #41, .F. ) ;
#128 = EDGE_CURVE ( 'NONE', #80, #84, #59, .T. ) ;
#129 = EDGE_CURVE ( 'NONE', #75, #73, #55, .T. ) ;
#130 = EDGE_CURVE ( 'NONE', #75, #66, #63, .T. ) ;
#131 = EDGE_CURVE ( 'NONE', #78, #84, #45, .T. ) ;
#132 = EDGE_CURVE ( 'NONE', #66, #78, #29, .T. ) ;
#133 = EDGE_CURVE ( 'NONE', #81, #75, #34, .T. ) ;
#134 = EDGE_CURVE ( 'NONE', #74, #73, #51, .T. ) ;
#135 = ORIENTED_EDGE ( 'NONE', *, *, #198, .F. ) ;
#136 = ORIENTED_EDGE ( 'NONE', *, *, #114, .F. ) ;
#137 = ADVANCED_BREP_SHAPE_REPRESENTATION ( 'sone3D', ( #157, #173 ), #1 ) ;
#138 = UNCERTAINTY_MEASURE_WITH_UNIT (LENGTH_MEASURE( 1.000000000000000100E-005 ), #83, 'distance_accuracy_value', 'NONE');
#139 = PERSON ( 'UNSPECIFIED', 'UNSPECIFIED', 'UNSPECIFIED', ('UNSPECIFIED'), ('UNSPECIFIED'), ('UNSPECIFIED') ) ;
#140 = EDGE_CURVE ( 'NONE', #84, #74, #53, .T. ) ;
#141 = CC_DESIGN_PERSON_AND_ORGANIZATION_ASSIGNMENT ( #204, #206, ( #118 ) ) ;
#142 = PRODUCT_DEFINITION ( 'UNKNOWN', '', #196, #156 ) ;
#143 = APPROVAL ( #236, 'UNSPECIFIED' ) ;
#144 = LOCAL_TIME ( 19, 11, 39.00000000000000000, #161 ) ;
#145 = CC_DESIGN_PERSON_AND_ORGANIZATION_ASSIGNMENT ( #217, #205, ( #142 ) ) ;
#146 = LOCAL_TIME ( 19, 11, 39.00000000000000000, #178 ) ;
#147 = CC_DESIGN_DATE_AND_TIME_ASSIGNMENT ( #216, #214, ( #142 ) ) ;
#148 = APPROVAL ( #224, 'UNSPECIFIED' ) ;
#149 = LOCAL_TIME ( 19, 11, 39.00000000000000000, #172 ) ;
#150 = CC_DESIGN_PERSON_AND_ORGANIZATION_ASSIGNMENT ( #229, #211, ( #196 ) ) ;
#151 = CC_DESIGN_PERSON_AND_ORGANIZATION_ASSIGNMENT ( #228, #223, ( #196 ) ) ;
#152 = CC_DESIGN_PERSON_AND_ORGANIZATION_ASSIGNMENT ( #235, #232, ( #193 ) ) ;
#153 = LOCAL_TIME ( 19, 11, 39.00000000000000000, #8 ) ;
#154 = APPLICATION_CONTEXT ( 'configuration controlled 3d designs of mechanical parts and assemblies' ) ;
#155 = APPLICATION_CONTEXT ( 'configuration controlled 3d designs of mechanical parts and assemblies' ) ;
#156 = DESIGN_CONTEXT ( 'detailed design', #155, 'design' ) ;
#157 = MANIFOLD_SOLID_BREP ( 'ÎÞ½ - µoµ1', #179 ) ;
#158 = PRODUCT_DEFINITION_SHAPE ( 'NONE', 'NONE',  #142 ) ;
#159 = VECTOR ( 'NONE', #38, 1000.000000000000000 ) ;
#160 = CALENDAR_DATE ( 2015, 11, 8 ) ;
#161 = COORDINATED_UNIVERSAL_TIME_OFFSET ( 9, 0, .AHEAD. ) ;
#162 = FACE_OUTER_BOUND ( 'NONE', #71, .T. ) ;
#163 = VECTOR ( 'NONE', #48, 1000.000000000000000 ) ;
#164 = VECTOR ( 'NONE', #43, 1000.000000000000000 ) ;
#165 = CC_DESIGN_APPROVAL ( #148, ( #196 ) ) ;
#166 = VECTOR ( 'NONE', #70, 1000.000000000000000 ) ;
#167 = FACE_OUTER_BOUND ( 'NONE', #67, .T. ) ;
#168 = VECTOR ( 'NONE', #94, 1000.000000000000000 ) ;
#169 = AXIS2_PLACEMENT_3D ( 'NONE', #62, #61, #60 ) ;
#170 = VECTOR ( 'NONE', #22, 1000.000000000000000 ) ;
#171 = VECTOR ( 'NONE', #57, 1000.000000000000000 ) ;
#172 = COORDINATED_UNIVERSAL_TIME_OFFSET ( 9, 0, .AHEAD. ) ;
#173 = AXIS2_PLACEMENT_3D ( 'NONE', #209, #208, #207 ) ;
#174 = CALENDAR_DATE ( 2015, 11, 8 ) ;
#175 = FACE_OUTER_BOUND ( 'NONE', #72, .T. ) ;
#176 = AXIS2_PLACEMENT_3D ( 'NONE', #101, #102, #103 ) ;
#177 = CALENDAR_DATE ( 2015, 11, 8 ) ;
#178 = COORDINATED_UNIVERSAL_TIME_OFFSET ( 9, 0, .AHEAD. ) ;
#179 = CLOSED_SHELL ( 'NONE', ( #124, #125, #127, #115, #123, #126 ) ) ;
#180 = VECTOR ( 'NONE', #39, 1000.000000000000000 ) ;
#181 = FACE_OUTER_BOUND ( 'NONE', #76, .T. ) ;
#182 = VECTOR ( 'NONE', #96, 1000.000000000000000 ) ;
#183 = AXIS2_PLACEMENT_3D ( 'NONE', #109, #110, #111 ) ;
#184 = AXIS2_PLACEMENT_3D ( 'NONE', #107, #105, #106 ) ;
#185 = VECTOR ( 'NONE', #32, 1000.000000000000000 ) ;
#186 = AXIS2_PLACEMENT_3D ( 'NONE', #87, #88, #89 ) ;
#187 = AXIS2_PLACEMENT_3D ( 'NONE', #97, #99, #100 ) ;
#188 = CC_DESIGN_APPROVAL ( #143, ( #142 ) ) ;
#189 = FACE_OUTER_BOUND ( 'NONE', #68, .T. ) ;
#190 = ORGANIZATION ( 'UNSPECIFIED', 'UNSPECIFIED', '' ) ;
#191 = VECTOR ( 'NONE', #65, 1000.000000000000000 ) ;
#192 = VECTOR ( 'NONE', #56, 1000.000000000000000 ) ;
#193 = SECURITY_CLASSIFICATION ( '', '', #237 ) ;
#194 = FACE_OUTER_BOUND ( 'NONE', #69, .T. ) ;
#195 = APPROVAL_PERSON_ORGANIZATION ( #213, #148, #221 ) ;
#196 = PRODUCT_DEFINITION_FORMATION_WITH_SPECIFIED_SOURCE ( 'ANY', '', #118, .NOT_KNOWN. ) ;
#197 = APPROVAL_PERSON_ORGANIZATION ( #200, #143, #215 ) ;
#198 = EDGE_CURVE ( 'NONE', #78, #81, #50, .T. ) ;
#199 = DATE_AND_TIME ( #177, #149 ) ;
#200 = PERSON_AND_ORGANIZATION ( #139, #190 ) ;
#201 = MECHANICAL_CONTEXT ( 'NONE', #154, 'mechanical' ) ;
#202 = APPLICATION_PROTOCOL_DEFINITION ( 'international standard', 'config_control_design', 1994, #155 ) ;
#203 = DATE_AND_TIME ( #160, #144 ) ;
#204 = PERSON_AND_ORGANIZATION ( #139, #190 ) ;
#205 = PERSON_AND_ORGANIZATION_ROLE ( 'creator' ) ;
#206 = PERSON_AND_ORGANIZATION_ROLE ( 'design_owner' ) ;
#207 = DIRECTION ( 'NONE',  ( 1.000000000000000000, 0.0000000000000000000, 0.0000000000000000000 ) ) ;
#208 = DIRECTION ( 'NONE',  ( 0.0000000000000000000, 0.0000000000000000000, 1.000000000000000000 ) ) ;
#209 = CARTESIAN_POINT ( 'NONE',  ( 0.0000000000000000000, 0.0000000000000000000, 0.0000000000000000000 ) ) ;
#210 = APPROVAL_DATE_TIME ( #203, #143 ) ;
#211 = PERSON_AND_ORGANIZATION_ROLE ( 'creator' ) ;
#212 = APPROVAL_DATE_TIME ( #199, #148 ) ;
#213 = PERSON_AND_ORGANIZATION ( #139, #190 ) ;
#214 = DATE_TIME_ROLE ( 'creation_date' ) ;
#215 = APPROVAL_ROLE ( '' ) ;
#216 = DATE_AND_TIME ( #174, #146 ) ;
#217 = PERSON_AND_ORGANIZATION ( #139, #190 ) ;
#218 =( NAMED_UNIT ( * ) SI_UNIT ( $, .STERADIAN. ) SOLID_ANGLE_UNIT ( ) );
#219 = SHAPE_DEFINITION_REPRESENTATION ( #158, #137 ) ;
#220 = APPLICATION_PROTOCOL_DEFINITION ( 'international standard', 'config_control_design', 1994, #154 ) ;
#221 = APPROVAL_ROLE ( '' ) ;
#222 =( NAMED_UNIT ( * ) PLANE_ANGLE_UNIT ( ) SI_UNIT ( $, .RADIAN. ) );
#223 = PERSON_AND_ORGANIZATION_ROLE ( 'design_supplier' ) ;
#224 = APPROVAL_STATUS ( 'not_yet_approved' ) ;
#225 = DATE_AND_TIME ( #6, #153 ) ;
#226 = APPROVAL_ROLE ( '' ) ;
#227 = DATE_AND_TIME ( #3, #121 ) ;
#228 = PERSON_AND_ORGANIZATION ( #139, #190 ) ;
#229 = PERSON_AND_ORGANIZATION ( #139, #190 ) ;
#230 = DATE_TIME_ROLE ( 'classification_date' ) ;
#231 = PERSON_AND_ORGANIZATION ( #139, #190 ) ;
#232 = PERSON_AND_ORGANIZATION_ROLE ( 'classification_officer' ) ;
#233 = APPROVAL_STATUS ( 'not_yet_approved' ) ;
#234 = APPROVAL_DATE_TIME ( #227, #120 ) ;
#235 = PERSON_AND_ORGANIZATION ( #139, #190 ) ;
#236 = APPROVAL_STATUS ( 'not_yet_approved' ) ;
#237 = SECURITY_CLASSIFICATION_LEVEL ( 'unclassified' ) ;
ENDSEC;
END-ISO-10303-21;
