ISO-10303-21;
HEADER;
FILE_DESCRIPTION (( 'STEP AP203' ),
    '1' );
FILE_NAME ('sone3D.STEP',
    '2015-08-11T10:31:00',
    ( '' ),
    ( '' ),
    'SwSTEP 2.0',
    'SolidWorks 2012',
    '' );
FILE_SCHEMA (( 'CONFIG_CONTROL_DESIGN' ));
ENDSEC;

DATA;
#1 = ADVANCED_BREP_SHAPE_REPRESENTATION ( 'sone3D', ( #90, #20 ), #88 ) ;
#2 = UNCERTAINTY_MEASURE_WITH_UNIT (LENGTH_MEASURE( 1.000000000000000100E-005 ), #144, 'distance_accuracy_value', 'NONE');
#3 = PERSON ( 'UNSPECIFIED', 'UNSPECIFIED', 'UNSPECIFIED', ('UNSPECIFIED'), ('UNSPECIFIED'), ('UNSPECIFIED') ) ;
#4 = CLOSED_SHELL ( 'NONE', ( #71, #73, #69, #80, #70, #75 ) ) ;
#5 = CC_DESIGN_SECURITY_CLASSIFICATION ( #48, ( #23 ) ) ;
#6 = APPROVAL_PERSON_ORGANIZATION ( #132, #64, #121 ) ;
#7 = COORDINATED_UNIVERSAL_TIME_OFFSET ( 9, 0, .AHEAD. ) ;
#8 = AXIS2_PLACEMENT_3D ( 'NONE', #229, #231, #232 ) ;
#9 = AXIS2_PLACEMENT_3D ( 'NONE', #220, #221, #223 ) ;
#10 = VECTOR ( 'NONE', #97, 1000.000000000000000 ) ;
#11 = COORDINATED_UNIVERSAL_TIME_OFFSET ( 9, 0, .AHEAD. ) ;
#12 = CALENDAR_DATE ( 2015, 11, 8 ) ;
#13 = VECTOR ( 'NONE', #218, 1000.000000000000000 ) ;
#14 = CALENDAR_DATE ( 2015, 11, 8 ) ;
#15 = AXIS2_PLACEMENT_3D ( 'NONE', #189, #225, #227 ) ;
#16 = COORDINATED_UNIVERSAL_TIME_OFFSET ( 9, 0, .AHEAD. ) ;
#17 = AXIS2_PLACEMENT_3D ( 'NONE', #145, #174, #187 ) ;
#18 = APPROVAL_PERSON_ORGANIZATION ( #107, #51, #98 ) ;
#19 = COORDINATED_UNIVERSAL_TIME_OFFSET ( 9, 0, .AHEAD. ) ;
#20 = AXIS2_PLACEMENT_3D ( 'NONE', #137, #136, #135 ) ;
#21 = VECTOR ( 'NONE', #175, 1000.000000000000000 ) ;
#22 = VECTOR ( 'NONE', #104, 1000.000000000000000 ) ;
#23 = PRODUCT_DEFINITION_FORMATION_WITH_SPECIFIED_SOURCE ( 'ANY', '', #85, .NOT_KNOWN. ) ;
#24 = AXIS2_PLACEMENT_3D ( 'NONE', #235, #237, #109 ) ;
#25 = CALENDAR_DATE ( 2015, 11, 8 ) ;
#26 = ORGANIZATION ( 'UNSPECIFIED', 'UNSPECIFIED', '' ) ;
#27 = CC_DESIGN_APPROVAL ( #67, ( #23 ) ) ;
#28 = FACE_OUTER_BOUND ( 'NONE', #200, .T. ) ;
#29 = FACE_OUTER_BOUND ( 'NONE', #203, .T. ) ;
#30 = AXIS2_PLACEMENT_3D ( 'NONE', #106, #236, #130 ) ;
#31 = VECTOR ( 'NONE', #164, 1000.000000000000000 ) ;
#32 = CALENDAR_DATE ( 2015, 11, 8 ) ;
#33 = FACE_OUTER_BOUND ( 'NONE', #204, .T. ) ;
#34 = CALENDAR_DATE ( 2015, 11, 8 ) ;
#35 = FACE_OUTER_BOUND ( 'NONE', #201, .T. ) ;
#36 = VECTOR ( 'NONE', #167, 1000.000000000000000 ) ;
#37 = FACE_OUTER_BOUND ( 'NONE', #199, .T. ) ;
#38 = VECTOR ( 'NONE', #158, 1000.000000000000000 ) ;
#39 = VECTOR ( 'NONE', #156, 1000.000000000000000 ) ;
#40 = VECTOR ( 'NONE', #234, 1000.000000000000000 ) ;
#41 = CC_DESIGN_APPROVAL ( #64, ( #76 ) ) ;
#42 = VECTOR ( 'NONE', #207, 1000.000000000000000 ) ;
#43 = COORDINATED_UNIVERSAL_TIME_OFFSET ( 9, 0, .AHEAD. ) ;
#44 = VECTOR ( 'NONE', #211, 1000.000000000000000 ) ;
#45 = FACE_OUTER_BOUND ( 'NONE', #202, .T. ) ;
#46 = CC_DESIGN_APPROVAL ( #51, ( #48 ) ) ;
#47 = VECTOR ( 'NONE', #179, 1000.000000000000000 ) ;
#48 = SECURITY_CLASSIFICATION ( '', '', #96 ) ;
#49 = APPROVAL_PERSON_ORGANIZATION ( #122, #67, #118 ) ;
#50 = LOCAL_TIME ( 19, 31, 0.0000000000000000000, #11 ) ;
#51 = APPROVAL ( #99, 'UNSPECIFIED' ) ;
#52 = CC_DESIGN_DATE_AND_TIME_ASSIGNMENT ( #103, #108, ( #48 ) ) ;
#53 = PRODUCT_RELATED_PRODUCT_CATEGORY ( 'detail', '', ( #85 ) ) ;
#54 = LOCAL_TIME ( 19, 31, 0.0000000000000000000, #16 ) ;
#55 = CC_DESIGN_PERSON_AND_ORGANIZATION_ASSIGNMENT ( #95, #105, ( #48 ) ) ;
#56 = CC_DESIGN_PERSON_AND_ORGANIZATION_ASSIGNMENT ( #100, #102, ( #23 ) ) ;
#57 = CC_DESIGN_PERSON_AND_ORGANIZATION_ASSIGNMENT ( #92, #93, ( #23 ) ) ;
#58 = LOCAL_TIME ( 19, 31, 0.0000000000000000000, #19 ) ;
#59 = CC_DESIGN_PERSON_AND_ORGANIZATION_ASSIGNMENT ( #125, #117, ( #76 ) ) ;
#60 = EDGE_CURVE ( 'NONE', #159, #168, #205, .T. ) ;
#61 = EDGE_CURVE ( 'NONE', #222, #162, #209, .T. ) ;
#62 = EDGE_CURVE ( 'NONE', #166, #159, #212, .T. ) ;
#63 = EDGE_CURVE ( 'NONE', #165, #166, #216, .T. ) ;
#64 = APPROVAL ( #131, 'UNSPECIFIED' ) ;
#65 = LOCAL_TIME ( 19, 31, 0.0000000000000000000, #43 ) ;
#66 = CC_DESIGN_DATE_AND_TIME_ASSIGNMENT ( #116, #123, ( #76 ) ) ;
#67 = APPROVAL ( #101, 'UNSPECIFIED' ) ;
#68 = CC_DESIGN_PERSON_AND_ORGANIZATION_ASSIGNMENT ( #127, #138, ( #85 ) ) ;
#69 = ADVANCED_FACE ( 'NONE', ( #37 ), #208, .F. ) ;
#70 = ADVANCED_FACE ( 'NONE', ( #28 ), #224, .T. ) ;
#71 = ADVANCED_FACE ( 'NONE', ( #45 ), #228, .F. ) ;
#72 = EDGE_CURVE ( 'NONE', #168, #222, #233, .T. ) ;
#73 = ADVANCED_FACE ( 'NONE', ( #29 ), #183, .F. ) ;
#74 = LOCAL_TIME ( 19, 31, 0.0000000000000000000, #7 ) ;
#75 = ADVANCED_FACE ( 'NONE', ( #35 ), #112, .F. ) ;
#76 = PRODUCT_DEFINITION ( 'UNKNOWN', '', #23, #89 ) ;
#77 = EDGE_CURVE ( 'NONE', #160, #165, #110, .T. ) ;
#78 = EDGE_CURVE ( 'NONE', #162, #159, #172, .T. ) ;
#79 = EDGE_CURVE ( 'NONE', #163, #160, #197, .T. ) ;
#80 = ADVANCED_FACE ( 'NONE', ( #33 ), #182, .F. ) ;
#81 = EDGE_CURVE ( 'NONE', #166, #163, #215, .T. ) ;
#82 = EDGE_CURVE ( 'NONE', #160, #222, #114, .T. ) ;
#83 = EDGE_CURVE ( 'NONE', #163, #168, #153, .T. ) ;
#84 = EDGE_CURVE ( 'NONE', #165, #162, #157, .T. ) ;
#85 = PRODUCT ( 'sone3D', 'sone3D', '', ( #128 ) ) ;
#86 = APPLICATION_CONTEXT ( 'configuration controlled 3d designs of mechanical parts and assemblies' ) ;
#87 = APPLICATION_CONTEXT ( 'configuration controlled 3d designs of mechanical parts and assemblies' ) ;
#88 =( GEOMETRIC_REPRESENTATION_CONTEXT ( 3 ) GLOBAL_UNCERTAINTY_ASSIGNED_CONTEXT ( ( #2 ) ) GLOBAL_UNIT_ASSIGNED_CONTEXT ( ( #144, #142, #139 ) ) REPRESENTATION_CONTEXT ( 'NONE', 'WORKASPACE' ) );
#89 = DESIGN_CONTEXT ( 'detailed design', #86, 'design' ) ;
#90 = MANIFOLD_SOLID_BREP ( 'ÎÞ½ - µoµ1', #4 ) ;
#91 = PRODUCT_DEFINITION_SHAPE ( 'NONE', 'NONE',  #76 ) ;
#92 = PERSON_AND_ORGANIZATION ( #3, #26 ) ;
#93 = PERSON_AND_ORGANIZATION_ROLE ( 'creator' ) ;
#94 = DATE_AND_TIME ( #14, #50 ) ;
#95 = PERSON_AND_ORGANIZATION ( #3, #26 ) ;
#96 = SECURITY_CLASSIFICATION_LEVEL ( 'unclassified' ) ;
#97 = DIRECTION ( 'NONE',  ( -0.0000000000000000000, -0.0000000000000000000, -1.000000000000000000 ) ) ;
#98 = APPROVAL_ROLE ( '' ) ;
#99 = APPROVAL_STATUS ( 'not_yet_approved' ) ;
#100 = PERSON_AND_ORGANIZATION ( #3, #26 ) ;
#101 = APPROVAL_STATUS ( 'not_yet_approved' ) ;
#102 = PERSON_AND_ORGANIZATION_ROLE ( 'design_supplier' ) ;
#103 = DATE_AND_TIME ( #32, #54 ) ;
#104 = DIRECTION ( 'NONE',  ( 1.000000000000000000, 0.0000000000000000000, 0.0000000000000000000 ) ) ;
#105 = PERSON_AND_ORGANIZATION_ROLE ( 'classification_officer' ) ;
#106 = CARTESIAN_POINT ( 'NONE',  ( 0.0000000000000000000, 0.0000000000000000000, -500.0000000000000000 ) ) ;
#107 = PERSON_AND_ORGANIZATION ( #3, #26 ) ;
#108 = DATE_TIME_ROLE ( 'classification_date' ) ;
#109 = DIRECTION ( 'NONE',  ( 0.0000000000000000000, -0.0000000000000000000, 1.000000000000000000 ) ) ;
#110 = LINE ( 'NONE', #111, #47 ) ;
#111 = CARTESIAN_POINT ( 'NONE',  ( -20.00000000000000000, 15.00000000000000000, 500.0000000000000000 ) ) ;
#112 = PLANE ( 'NONE',  #30 ) ;
#113 = APPROVAL_DATE_TIME ( #120, #64 ) ;
#114 = LINE ( 'NONE', #150, #36 ) ;
#115 = APPROVAL_DATE_TIME ( #94, #51 ) ;
#116 = DATE_AND_TIME ( #25, #65 ) ;
#117 = PERSON_AND_ORGANIZATION_ROLE ( 'creator' ) ;
#118 = APPROVAL_ROLE ( '' ) ;
#119 = DATE_AND_TIME ( #34, #58 ) ;
#120 = DATE_AND_TIME ( #12, #74 ) ;
#121 = APPROVAL_ROLE ( '' ) ;
#122 = PERSON_AND_ORGANIZATION ( #3, #26 ) ;
#123 = DATE_TIME_ROLE ( 'creation_date' ) ;
#124 = SHAPE_DEFINITION_REPRESENTATION ( #91, #1 ) ;
#125 = PERSON_AND_ORGANIZATION ( #3, #26 ) ;
#126 = CARTESIAN_POINT ( 'NONE',  ( -20.00000000000000000, 15.00000000000000000, -500.0000000000000000 ) ) ;
#127 = PERSON_AND_ORGANIZATION ( #3, #26 ) ;
#128 = MECHANICAL_CONTEXT ( 'NONE', #87, 'mechanical' ) ;
#129 = APPROVAL_DATE_TIME ( #119, #67 ) ;
#130 = DIRECTION ( 'NONE',  ( 1.000000000000000000, 0.0000000000000000000, 0.0000000000000000000 ) ) ;
#131 = APPROVAL_STATUS ( 'not_yet_approved' ) ;
#132 = PERSON_AND_ORGANIZATION ( #3, #26 ) ;
#133 = APPLICATION_PROTOCOL_DEFINITION ( 'international standard', 'config_control_design', 1994, #86 ) ;
#134 = APPLICATION_PROTOCOL_DEFINITION ( 'international standard', 'config_control_design', 1994, #87 ) ;
#135 = DIRECTION ( 'NONE',  ( 1.000000000000000000, 0.0000000000000000000, 0.0000000000000000000 ) ) ;
#136 = DIRECTION ( 'NONE',  ( 0.0000000000000000000, 0.0000000000000000000, 1.000000000000000000 ) ) ;
#137 = CARTESIAN_POINT ( 'NONE',  ( 0.0000000000000000000, 0.0000000000000000000, 0.0000000000000000000 ) ) ;
#138 = PERSON_AND_ORGANIZATION_ROLE ( 'design_owner' ) ;
#139 =( NAMED_UNIT ( * ) SI_UNIT ( $, .STERADIAN. ) SOLID_ANGLE_UNIT ( ) );
#140 = CARTESIAN_POINT ( 'NONE',  ( 20.00000000000000400, -15.00000000000000000, -500.0000000000000000 ) ) ;
#141 = CARTESIAN_POINT ( 'NONE',  ( 20.00000000000000000, 15.00000000000000000, -500.0000000000000000 ) ) ;
#142 =( NAMED_UNIT ( * ) PLANE_ANGLE_UNIT ( ) SI_UNIT ( $, .RADIAN. ) );
#143 = CARTESIAN_POINT ( 'NONE',  ( -20.00000000000000000, 15.00000000000000000, -500.0000000000000000 ) ) ;
#144 =( LENGTH_UNIT ( ) NAMED_UNIT ( * ) SI_UNIT ( .MILLI., .METRE. ) );
#145 = CARTESIAN_POINT ( 'NONE',  ( -20.00000000000000000, 15.00000000000000000, 500.0000000000000000 ) ) ;
#146 = CARTESIAN_POINT ( 'NONE',  ( -20.00000000000000000, 15.00000000000000000, 500.0000000000000000 ) ) ;
#147 = CARTESIAN_POINT ( 'NONE',  ( -20.00000000000000000, -15.00000000000000000, 500.0000000000000000 ) ) ;
#148 = CARTESIAN_POINT ( 'NONE',  ( -20.00000000000000000, 15.00000000000000000, 500.0000000000000000 ) ) ;
#149 = CARTESIAN_POINT ( 'NONE',  ( -20.00000000000000000, -15.00000000000000000, 500.0000000000000000 ) ) ;
#150 = CARTESIAN_POINT ( 'NONE',  ( 20.00000000000000000, 15.00000000000000000, 500.0000000000000000 ) ) ;
#151 = CARTESIAN_POINT ( 'NONE',  ( 20.00000000000000400, -15.00000000000000000, 500.0000000000000000 ) ) ;
#152 = CARTESIAN_POINT ( 'NONE',  ( 20.00000000000000400, -15.00000000000000000, 500.0000000000000000 ) ) ;
#153 = LINE ( 'NONE', #152, #38 ) ;
#154 = CARTESIAN_POINT ( 'NONE',  ( 20.00000000000000000, 15.00000000000000000, 500.0000000000000000 ) ) ;
#155 = CARTESIAN_POINT ( 'NONE',  ( -20.00000000000000000, -15.00000000000000000, -500.0000000000000000 ) ) ;
#156 = DIRECTION ( 'NONE',  ( -0.0000000000000000000, -0.0000000000000000000, -1.000000000000000000 ) ) ;
#157 = LINE ( 'NONE', #146, #39 ) ;
#158 = DIRECTION ( 'NONE',  ( -0.0000000000000000000, -0.0000000000000000000, -1.000000000000000000 ) ) ;
#159 = VERTEX_POINT ( 'NONE', #155 ) ;
#160 = VERTEX_POINT ( 'NONE', #154 ) ;
#161 = CARTESIAN_POINT ( 'NONE',  ( -20.00000000000000000, -15.00000000000000000, 500.0000000000000000 ) ) ;
#162 = VERTEX_POINT ( 'NONE', #143 ) ;
#163 = VERTEX_POINT ( 'NONE', #151 ) ;
#164 = DIRECTION ( 'NONE',  ( -1.156482317317871500E-016, 1.000000000000000000, -0.0000000000000000000 ) ) ;
#165 = VERTEX_POINT ( 'NONE', #148 ) ;
#166 = VERTEX_POINT ( 'NONE', #147 ) ;
#167 = DIRECTION ( 'NONE',  ( -0.0000000000000000000, -0.0000000000000000000, -1.000000000000000000 ) ) ;
#168 = VERTEX_POINT ( 'NONE', #140 ) ;
#169 = ORIENTED_EDGE ( 'NONE', *, *, #72, .F. ) ;
#170 = ORIENTED_EDGE ( 'NONE', *, *, #61, .F. ) ;
#171 = ORIENTED_EDGE ( 'NONE', *, *, #63, .F. ) ;
#172 = LINE ( 'NONE', #126, #21 ) ;
#173 = ORIENTED_EDGE ( 'NONE', *, *, #62, .F. ) ;
#174 = DIRECTION ( 'NONE',  ( 0.0000000000000000000, -1.000000000000000000, 0.0000000000000000000 ) ) ;
#175 = DIRECTION ( 'NONE',  ( 0.0000000000000000000, -1.000000000000000000, 0.0000000000000000000 ) ) ;
#176 = ORIENTED_EDGE ( 'NONE', *, *, #60, .F. ) ;
#177 = ORIENTED_EDGE ( 'NONE', *, *, #79, .T. ) ;
#178 = ORIENTED_EDGE ( 'NONE', *, *, #81, .T. ) ;
#179 = DIRECTION ( 'NONE',  ( -1.000000000000000000, -0.0000000000000000000, -0.0000000000000000000 ) ) ;
#180 = ORIENTED_EDGE ( 'NONE', *, *, #63, .T. ) ;
#181 = ORIENTED_EDGE ( 'NONE', *, *, #84, .F. ) ;
#182 = PLANE ( 'NONE',  #17 ) ;
#183 = PLANE ( 'NONE',  #24 ) ;
#184 = ORIENTED_EDGE ( 'NONE', *, *, #77, .F. ) ;
#185 = ORIENTED_EDGE ( 'NONE', *, *, #83, .T. ) ;
#186 = ORIENTED_EDGE ( 'NONE', *, *, #78, .F. ) ;
#187 = DIRECTION ( 'NONE',  ( 0.0000000000000000000, -0.0000000000000000000, -1.000000000000000000 ) ) ;
#188 = ORIENTED_EDGE ( 'NONE', *, *, #79, .F. ) ;
#189 = CARTESIAN_POINT ( 'NONE',  ( 0.0000000000000000000, 0.0000000000000000000, 500.0000000000000000 ) ) ;
#190 = ORIENTED_EDGE ( 'NONE', *, *, #82, .F. ) ;
#191 = ORIENTED_EDGE ( 'NONE', *, *, #60, .T. ) ;
#192 = ORIENTED_EDGE ( 'NONE', *, *, #81, .F. ) ;
#193 = ORIENTED_EDGE ( 'NONE', *, *, #72, .T. ) ;
#194 = ORIENTED_EDGE ( 'NONE', *, *, #61, .T. ) ;
#195 = ORIENTED_EDGE ( 'NONE', *, *, #62, .T. ) ;
#196 = ORIENTED_EDGE ( 'NONE', *, *, #78, .T. ) ;
#197 = LINE ( 'NONE', #230, #31 ) ;
#198 = ORIENTED_EDGE ( 'NONE', *, *, #84, .T. ) ;
#199 = EDGE_LOOP ( 'NONE', ( #193, #190, #188, #185 ) ) ;
#200 = EDGE_LOOP ( 'NONE', ( #180, #178, #177, #213 ) ) ;
#201 = EDGE_LOOP ( 'NONE', ( #186, #170, #169, #176 ) ) ;
#202 = EDGE_LOOP ( 'NONE', ( #196, #173, #171, #198 ) ) ;
#203 = EDGE_LOOP ( 'NONE', ( #191, #214, #192, #195 ) ) ;
#204 = EDGE_LOOP ( 'NONE', ( #194, #181, #184, #219 ) ) ;
#205 = LINE ( 'NONE', #206, #42 ) ;
#206 = CARTESIAN_POINT ( 'NONE',  ( -20.00000000000000000, -15.00000000000000000, -500.0000000000000000 ) ) ;
#207 = DIRECTION ( 'NONE',  ( 1.000000000000000000, 0.0000000000000000000, 0.0000000000000000000 ) ) ;
#208 = PLANE ( 'NONE',  #9 ) ;
#209 = LINE ( 'NONE', #210, #44 ) ;
#210 = CARTESIAN_POINT ( 'NONE',  ( -20.00000000000000000, 15.00000000000000000, -500.0000000000000000 ) ) ;
#211 = DIRECTION ( 'NONE',  ( -1.000000000000000000, -0.0000000000000000000, -0.0000000000000000000 ) ) ;
#212 = LINE ( 'NONE', #161, #10 ) ;
#213 = ORIENTED_EDGE ( 'NONE', *, *, #77, .T. ) ;
#214 = ORIENTED_EDGE ( 'NONE', *, *, #83, .F. ) ;
#215 = LINE ( 'NONE', #149, #22 ) ;
#216 = LINE ( 'NONE', #217, #13 ) ;
#217 = CARTESIAN_POINT ( 'NONE',  ( -20.00000000000000000, 15.00000000000000000, 500.0000000000000000 ) ) ;
#218 = DIRECTION ( 'NONE',  ( 0.0000000000000000000, -1.000000000000000000, 0.0000000000000000000 ) ) ;
#219 = ORIENTED_EDGE ( 'NONE', *, *, #82, .T. ) ;
#220 = CARTESIAN_POINT ( 'NONE',  ( 20.00000000000000000, 15.00000000000000000, 500.0000000000000000 ) ) ;
#221 = DIRECTION ( 'NONE',  ( -1.000000000000000000, -1.156482317317871500E-016, 0.0000000000000000000 ) ) ;
#222 = VERTEX_POINT ( 'NONE', #141 ) ;
#223 = DIRECTION ( 'NONE',  ( 1.156482317317871500E-016, -1.000000000000000000, 0.0000000000000000000 ) ) ;
#224 = PLANE ( 'NONE',  #15 ) ;
#225 = DIRECTION ( 'NONE',  ( -0.0000000000000000000, 0.0000000000000000000, 1.000000000000000000 ) ) ;
#226 = CARTESIAN_POINT ( 'NONE',  ( 20.00000000000000000, 15.00000000000000000, -500.0000000000000000 ) ) ;
#227 = DIRECTION ( 'NONE',  ( 1.000000000000000000, 0.0000000000000000000, 0.0000000000000000000 ) ) ;
#228 = PLANE ( 'NONE',  #8 ) ;
#229 = CARTESIAN_POINT ( 'NONE',  ( -20.00000000000000000, 15.00000000000000000, 500.0000000000000000 ) ) ;
#230 = CARTESIAN_POINT ( 'NONE',  ( 20.00000000000000000, 15.00000000000000000, 500.0000000000000000 ) ) ;
#231 = DIRECTION ( 'NONE',  ( 1.000000000000000000, 0.0000000000000000000, -0.0000000000000000000 ) ) ;
#232 = DIRECTION ( 'NONE',  ( -0.0000000000000000000, 0.0000000000000000000, -1.000000000000000000 ) ) ;
#233 = LINE ( 'NONE', #226, #40 ) ;
#234 = DIRECTION ( 'NONE',  ( -1.156482317317871500E-016, 1.000000000000000000, -0.0000000000000000000 ) ) ;
#235 = CARTESIAN_POINT ( 'NONE',  ( -20.00000000000000000, -15.00000000000000000, 500.0000000000000000 ) ) ;
#236 = DIRECTION ( 'NONE',  ( -0.0000000000000000000, 0.0000000000000000000, 1.000000000000000000 ) ) ;
#237 = DIRECTION ( 'NONE',  ( 0.0000000000000000000, 1.000000000000000000, 0.0000000000000000000 ) ) ;
ENDSEC;
END-ISO-10303-21;
