ISO-10303-21;
HEADER;
FILE_DESCRIPTION (( 'STEP AP203' ),
    '1' );
FILE_NAME ('sone3D.STEP',
    '2015-08-11T10:30:44',
    ( '' ),
    ( '' ),
    'SwSTEP 2.0',
    'SolidWorks 2012',
    '' );
FILE_SCHEMA (( 'CONFIG_CONTROL_DESIGN' ));
ENDSEC;

DATA;
#1 = PERSON ( 'UNSPECIFIED', 'UNSPECIFIED', 'UNSPECIFIED', ('UNSPECIFIED'), ('UNSPECIFIED'), ('UNSPECIFIED') ) ;
#2 = ADVANCED_BREP_SHAPE_REPRESENTATION ( 'sone3D', ( #90, #16 ), #88 ) ;
#3 = UNCERTAINTY_MEASURE_WITH_UNIT (LENGTH_MEASURE( 1.000000000000000100E-005 ), #220, 'distance_accuracy_value', 'NONE');
#4 = VECTOR ( 'NONE', #129, 1000.000000000000000 ) ;
#5 = COORDINATED_UNIVERSAL_TIME_OFFSET ( 9, 0, .AHEAD. ) ;
#6 = AXIS2_PLACEMENT_3D ( 'NONE', #132, #133, #137 ) ;
#7 = CC_DESIGN_APPROVAL ( #79, ( #26 ) ) ;
#8 = CALENDAR_DATE ( 2015, 11, 8 ) ;
#9 = CC_DESIGN_SECURITY_CLASSIFICATION ( #26, ( #33 ) ) ;
#10 = CALENDAR_DATE ( 2015, 11, 8 ) ;
#11 = VECTOR ( 'NONE', #229, 1000.000000000000000 ) ;
#12 = AXIS2_PLACEMENT_3D ( 'NONE', #155, #156, #158 ) ;
#13 = FACE_OUTER_BOUND ( 'NONE', #191, .T. ) ;
#14 = CC_DESIGN_APPROVAL ( #55, ( #33 ) ) ;
#15 = VECTOR ( 'NONE', #150, 1000.000000000000000 ) ;
#16 = AXIS2_PLACEMENT_3D ( 'NONE', #131, #108, #225 ) ;
#17 = FACE_OUTER_BOUND ( 'NONE', #143, .T. ) ;
#18 = VECTOR ( 'NONE', #121, 1000.000000000000000 ) ;
#19 = CALENDAR_DATE ( 2015, 11, 8 ) ;
#20 = VECTOR ( 'NONE', #182, 1000.000000000000000 ) ;
#21 = CC_DESIGN_APPROVAL ( #80, ( #67 ) ) ;
#22 = AXIS2_PLACEMENT_3D ( 'NONE', #211, #135, #208 ) ;
#23 = COORDINATED_UNIVERSAL_TIME_OFFSET ( 9, 0, .AHEAD. ) ;
#24 = VECTOR ( 'NONE', #144, 1000.000000000000000 ) ;
#25 = COORDINATED_UNIVERSAL_TIME_OFFSET ( 9, 0, .AHEAD. ) ;
#26 = SECURITY_CLASSIFICATION ( '', '', #189 ) ;
#27 = COORDINATED_UNIVERSAL_TIME_OFFSET ( 9, 0, .AHEAD. ) ;
#28 = AXIS2_PLACEMENT_3D ( 'NONE', #184, #188, #235 ) ;
#29 = FACE_OUTER_BOUND ( 'NONE', #125, .T. ) ;
#30 = VECTOR ( 'NONE', #113, 1000.000000000000000 ) ;
#31 = CALENDAR_DATE ( 2015, 11, 8 ) ;
#32 = VECTOR ( 'NONE', #212, 1000.000000000000000 ) ;
#33 = PRODUCT_DEFINITION_FORMATION_WITH_SPECIFIED_SOURCE ( 'ANY', '', #85, .NOT_KNOWN. ) ;
#34 = ORGANIZATION ( 'UNSPECIFIED', 'UNSPECIFIED', '' ) ;
#35 = COORDINATED_UNIVERSAL_TIME_OFFSET ( 9, 0, .AHEAD. ) ;
#36 = APPROVAL_PERSON_ORGANIZATION ( #167, #55, #163 ) ;
#37 = AXIS2_PLACEMENT_3D ( 'NONE', #166, #170, #171 ) ;
#38 = APPROVAL_PERSON_ORGANIZATION ( #196, #80, #180 ) ;
#39 = FACE_OUTER_BOUND ( 'NONE', #104, .T. ) ;
#40 = VECTOR ( 'NONE', #161, 1000.000000000000000 ) ;
#41 = VECTOR ( 'NONE', #174, 1000.000000000000000 ) ;
#42 = AXIS2_PLACEMENT_3D ( 'NONE', #123, #186, #106 ) ;
#43 = FACE_OUTER_BOUND ( 'NONE', #203, .T. ) ;
#44 = APPROVAL_PERSON_ORGANIZATION ( #204, #79, #169 ) ;
#45 = VECTOR ( 'NONE', #117, 1000.000000000000000 ) ;
#46 = CLOSED_SHELL ( 'NONE', ( #50, #83, #64, #58, #70, #62 ) ) ;
#47 = VECTOR ( 'NONE', #153, 1000.000000000000000 ) ;
#48 = FACE_OUTER_BOUND ( 'NONE', #193, .T. ) ;
#49 = CALENDAR_DATE ( 2015, 11, 8 ) ;
#50 = ADVANCED_FACE ( 'NONE', ( #13 ), #105, .F. ) ;
#51 = CC_DESIGN_PERSON_AND_ORGANIZATION_ASSIGNMENT ( #209, #205, ( #67 ) ) ;
#52 = LOCAL_TIME ( 19, 30, 44.00000000000000000, #23 ) ;
#53 = EDGE_CURVE ( 'NONE', #96, #94, #109, .T. ) ;
#54 = EDGE_CURVE ( 'NONE', #92, #97, #124, .T. ) ;
#55 = APPROVAL ( #165, 'UNSPECIFIED' ) ;
#56 = EDGE_CURVE ( 'NONE', #103, #94, #119, .T. ) ;
#57 = EDGE_CURVE ( 'NONE', #98, #99, #122, .T. ) ;
#58 = ADVANCED_FACE ( 'NONE', ( #48 ), #116, .F. ) ;
#59 = EDGE_CURVE ( 'NONE', #97, #96, #140, .T. ) ;
#60 = EDGE_CURVE ( 'NONE', #99, #93, #147, .T. ) ;
#61 = EDGE_CURVE ( 'NONE', #97, #103, #151, .T. ) ;
#62 = ADVANCED_FACE ( 'NONE', ( #39 ), #146, .F. ) ;
#63 = EDGE_CURVE ( 'NONE', #94, #99, #159, .T. ) ;
#64 = ADVANCED_FACE ( 'NONE', ( #17 ), #164, .F. ) ;
#65 = EDGE_CURVE ( 'NONE', #98, #92, #157, .T. ) ;
#66 = EDGE_CURVE ( 'NONE', #92, #93, #198, .T. ) ;
#67 = PRODUCT_DEFINITION ( 'UNKNOWN', '', #33, #91 ) ;
#68 = CC_DESIGN_PERSON_AND_ORGANIZATION_ASSIGNMENT ( #226, #185, ( #85 ) ) ;
#69 = LOCAL_TIME ( 19, 30, 44.00000000000000000, #25 ) ;
#70 = ADVANCED_FACE ( 'NONE', ( #29 ), #176, .T. ) ;
#71 = LOCAL_TIME ( 19, 30, 44.00000000000000000, #35 ) ;
#72 = LOCAL_TIME ( 19, 30, 44.00000000000000000, #5 ) ;
#73 = CC_DESIGN_DATE_AND_TIME_ASSIGNMENT ( #154, #236, ( #26 ) ) ;
#74 = CC_DESIGN_PERSON_AND_ORGANIZATION_ASSIGNMENT ( #187, #231, ( #26 ) ) ;
#75 = CC_DESIGN_PERSON_AND_ORGANIZATION_ASSIGNMENT ( #130, #227, ( #33 ) ) ;
#76 = CC_DESIGN_PERSON_AND_ORGANIZATION_ASSIGNMENT ( #230, #232, ( #33 ) ) ;
#77 = LOCAL_TIME ( 19, 30, 44.00000000000000000, #27 ) ;
#78 = CC_DESIGN_DATE_AND_TIME_ASSIGNMENT ( #210, #175, ( #67 ) ) ;
#79 = APPROVAL ( #228, 'UNSPECIFIED' ) ;
#80 = APPROVAL ( #217, 'UNSPECIFIED' ) ;
#81 = EDGE_CURVE ( 'NONE', #93, #103, #237, .T. ) ;
#82 = EDGE_CURVE ( 'NONE', #96, #98, #214, .T. ) ;
#83 = ADVANCED_FACE ( 'NONE', ( #43 ), #233, .F. ) ;
#84 = PRODUCT_RELATED_PRODUCT_CATEGORY ( 'detail', '', ( #85 ) ) ;
#85 = PRODUCT ( 'sone3D', 'sone3D', '', ( #179 ) ) ;
#86 = APPLICATION_CONTEXT ( 'configuration controlled 3d designs of mechanical parts and assemblies' ) ;
#87 = APPLICATION_CONTEXT ( 'configuration controlled 3d designs of mechanical parts and assemblies' ) ;
#88 =( GEOMETRIC_REPRESENTATION_CONTEXT ( 3 ) GLOBAL_UNCERTAINTY_ASSIGNED_CONTEXT ( ( #3 ) ) GLOBAL_UNIT_ASSIGNED_CONTEXT ( ( #220, #195, #197 ) ) REPRESENTATION_CONTEXT ( 'NONE', 'WORKASPACE' ) );
#89 = PRODUCT_DEFINITION_SHAPE ( 'NONE', 'NONE',  #67 ) ;
#90 = MANIFOLD_SOLID_BREP ( 'ÎÞ½ - µoµ1', #46 ) ;
#91 = DESIGN_CONTEXT ( 'detailed design', #87, 'design' ) ;
#92 = VERTEX_POINT ( 'NONE', #206 ) ;
#93 = VERTEX_POINT ( 'NONE', #141 ) ;
#94 = VERTEX_POINT ( 'NONE', #199 ) ;
#95 = ORIENTED_EDGE ( 'NONE', *, *, #66, .T. ) ;
#96 = VERTEX_POINT ( 'NONE', #201 ) ;
#97 = VERTEX_POINT ( 'NONE', #190 ) ;
#98 = VERTEX_POINT ( 'NONE', #215 ) ;
#99 = VERTEX_POINT ( 'NONE', #118 ) ;
#100 = ORIENTED_EDGE ( 'NONE', *, *, #60, .T. ) ;
#101 = ORIENTED_EDGE ( 'NONE', *, *, #54, .F. ) ;
#102 = ORIENTED_EDGE ( 'NONE', *, *, #61, .F. ) ;
#103 = VERTEX_POINT ( 'NONE', #183 ) ;
#104 = EDGE_LOOP ( 'NONE', ( #127, #177, #216, #112 ) ) ;
#105 = PLANE ( 'NONE',  #42 ) ;
#106 = DIRECTION ( 'NONE',  ( -1.156482317317871500E-016, 1.000000000000000000, 0.0000000000000000000 ) ) ;
#107 = ORIENTED_EDGE ( 'NONE', *, *, #59, .T. ) ;
#108 = DIRECTION ( 'NONE',  ( 0.0000000000000000000, 0.0000000000000000000, 1.000000000000000000 ) ) ;
#109 = LINE ( 'NONE', #110, #30 ) ;
#110 = CARTESIAN_POINT ( 'NONE',  ( -17.50000000000000700, 15.00000000000000200, 500.0000000000000000 ) ) ;
#111 = ORIENTED_EDGE ( 'NONE', *, *, #61, .T. ) ;
#112 = ORIENTED_EDGE ( 'NONE', *, *, #60, .F. ) ;
#113 = DIRECTION ( 'NONE',  ( -0.0000000000000000000, -0.0000000000000000000, -1.000000000000000000 ) ) ;
#114 = ORIENTED_EDGE ( 'NONE', *, *, #54, .T. ) ;
#115 = ORIENTED_EDGE ( 'NONE', *, *, #57, .F. ) ;
#116 = PLANE ( 'NONE',  #6 ) ;
#117 = DIRECTION ( 'NONE',  ( -2.312964634635743000E-016, 1.000000000000000000, -0.0000000000000000000 ) ) ;
#118 = CARTESIAN_POINT ( 'NONE',  ( -17.50000000000000400, -14.99999999999999800, -500.0000000000000000 ) ) ;
#119 = LINE ( 'NONE', #120, #18 ) ;
#120 = CARTESIAN_POINT ( 'NONE',  ( -17.50000000000000700, 15.00000000000000200, -500.0000000000000000 ) ) ;
#121 = DIRECTION ( 'NONE',  ( -1.000000000000000000, -0.0000000000000000000, -0.0000000000000000000 ) ) ;
#122 = LINE ( 'NONE', #128, #4 ) ;
#123 = CARTESIAN_POINT ( 'NONE',  ( -17.50000000000000700, 15.00000000000000200, 500.0000000000000000 ) ) ;
#124 = LINE ( 'NONE', #139, #45 ) ;
#125 = EDGE_LOOP ( 'NONE', ( #148, #181, #114, #107 ) ) ;
#126 = ORIENTED_EDGE ( 'NONE', *, *, #63, .T. ) ;
#127 = ORIENTED_EDGE ( 'NONE', *, *, #63, .F. ) ;
#128 = CARTESIAN_POINT ( 'NONE',  ( -17.50000000000000400, -14.99999999999999800, 500.0000000000000000 ) ) ;
#129 = DIRECTION ( 'NONE',  ( -0.0000000000000000000, -0.0000000000000000000, -1.000000000000000000 ) ) ;
#130 = PERSON_AND_ORGANIZATION ( #1, #34 ) ;
#131 = CARTESIAN_POINT ( 'NONE',  ( 0.0000000000000000000, 0.0000000000000000000, 0.0000000000000000000 ) ) ;
#132 = CARTESIAN_POINT ( 'NONE',  ( -17.50000000000000700, 15.00000000000000200, 500.0000000000000000 ) ) ;
#133 = DIRECTION ( 'NONE',  ( 0.0000000000000000000, -1.000000000000000000, 0.0000000000000000000 ) ) ;
#134 = ORIENTED_EDGE ( 'NONE', *, *, #66, .F. ) ;
#135 = DIRECTION ( 'NONE',  ( 0.0000000000000000000, 1.000000000000000000, 0.0000000000000000000 ) ) ;
#136 = ORIENTED_EDGE ( 'NONE', *, *, #65, .F. ) ;
#137 = DIRECTION ( 'NONE',  ( 0.0000000000000000000, -0.0000000000000000000, -1.000000000000000000 ) ) ;
#138 = ORIENTED_EDGE ( 'NONE', *, *, #82, .F. ) ;
#139 = CARTESIAN_POINT ( 'NONE',  ( 17.49999999999999600, 15.00000000000000200, 500.0000000000000000 ) ) ;
#140 = LINE ( 'NONE', #142, #24 ) ;
#141 = CARTESIAN_POINT ( 'NONE',  ( 17.50000000000000000, -14.99999999999999800, -500.0000000000000000 ) ) ;
#142 = CARTESIAN_POINT ( 'NONE',  ( -17.50000000000000700, 15.00000000000000200, 500.0000000000000000 ) ) ;
#143 = EDGE_LOOP ( 'NONE', ( #222, #102, #101, #95 ) ) ;
#144 = DIRECTION ( 'NONE',  ( -1.000000000000000000, -0.0000000000000000000, -0.0000000000000000000 ) ) ;
#145 = ORIENTED_EDGE ( 'NONE', *, *, #56, .T. ) ;
#146 = PLANE ( 'NONE',  #12 ) ;
#147 = LINE ( 'NONE', #149, #15 ) ;
#148 = ORIENTED_EDGE ( 'NONE', *, *, #82, .T. ) ;
#149 = CARTESIAN_POINT ( 'NONE',  ( -17.50000000000000400, -14.99999999999999800, -500.0000000000000000 ) ) ;
#150 = DIRECTION ( 'NONE',  ( 1.000000000000000000, 0.0000000000000000000, 0.0000000000000000000 ) ) ;
#151 = LINE ( 'NONE', #152, #47 ) ;
#152 = CARTESIAN_POINT ( 'NONE',  ( 17.49999999999999600, 15.00000000000000200, 500.0000000000000000 ) ) ;
#153 = DIRECTION ( 'NONE',  ( -0.0000000000000000000, -0.0000000000000000000, -1.000000000000000000 ) ) ;
#154 = DATE_AND_TIME ( #8, #72 ) ;
#155 = CARTESIAN_POINT ( 'NONE',  ( 0.0000000000000000000, 0.0000000000000000000, -500.0000000000000000 ) ) ;
#156 = DIRECTION ( 'NONE',  ( -0.0000000000000000000, 0.0000000000000000000, 1.000000000000000000 ) ) ;
#157 = LINE ( 'NONE', #173, #41 ) ;
#158 = DIRECTION ( 'NONE',  ( 1.000000000000000000, 0.0000000000000000000, 0.0000000000000000000 ) ) ;
#159 = LINE ( 'NONE', #160, #40 ) ;
#160 = CARTESIAN_POINT ( 'NONE',  ( -17.50000000000000700, 15.00000000000000200, -500.0000000000000000 ) ) ;
#161 = DIRECTION ( 'NONE',  ( 1.156482317317871500E-016, -1.000000000000000000, 0.0000000000000000000 ) ) ;
#162 = DATE_AND_TIME ( #31, #71 ) ;
#163 = APPROVAL_ROLE ( '' ) ;
#164 = PLANE ( 'NONE',  #37 ) ;
#165 = APPROVAL_STATUS ( 'not_yet_approved' ) ;
#166 = CARTESIAN_POINT ( 'NONE',  ( 17.49999999999999600, 15.00000000000000200, 500.0000000000000000 ) ) ;
#167 = PERSON_AND_ORGANIZATION ( #1, #34 ) ;
#168 = ORIENTED_EDGE ( 'NONE', *, *, #57, .T. ) ;
#169 = APPROVAL_ROLE ( '' ) ;
#170 = DIRECTION ( 'NONE',  ( -1.000000000000000000, -2.312964634635743000E-016, 0.0000000000000000000 ) ) ;
#171 = DIRECTION ( 'NONE',  ( 2.312964634635743000E-016, -1.000000000000000000, 0.0000000000000000000 ) ) ;
#172 = ORIENTED_EDGE ( 'NONE', *, *, #53, .T. ) ;
#173 = CARTESIAN_POINT ( 'NONE',  ( -17.50000000000000400, -14.99999999999999800, 500.0000000000000000 ) ) ;
#174 = DIRECTION ( 'NONE',  ( 1.000000000000000000, 0.0000000000000000000, 0.0000000000000000000 ) ) ;
#175 = DATE_TIME_ROLE ( 'creation_date' ) ;
#176 = PLANE ( 'NONE',  #28 ) ;
#177 = ORIENTED_EDGE ( 'NONE', *, *, #56, .F. ) ;
#178 = CARTESIAN_POINT ( 'NONE',  ( 17.50000000000000000, -14.99999999999999800, 500.0000000000000000 ) ) ;
#179 = MECHANICAL_CONTEXT ( 'NONE', #86, 'mechanical' ) ;
#180 = APPROVAL_ROLE ( '' ) ;
#181 = ORIENTED_EDGE ( 'NONE', *, *, #65, .T. ) ;
#182 = DIRECTION ( 'NONE',  ( -0.0000000000000000000, -0.0000000000000000000, -1.000000000000000000 ) ) ;
#183 = CARTESIAN_POINT ( 'NONE',  ( 17.49999999999999600, 15.00000000000000200, -500.0000000000000000 ) ) ;
#184 = CARTESIAN_POINT ( 'NONE',  ( 0.0000000000000000000, 0.0000000000000000000, 500.0000000000000000 ) ) ;
#185 = PERSON_AND_ORGANIZATION_ROLE ( 'design_owner' ) ;
#186 = DIRECTION ( 'NONE',  ( 1.000000000000000000, 1.156482317317871500E-016, -0.0000000000000000000 ) ) ;
#187 = PERSON_AND_ORGANIZATION ( #1, #34 ) ;
#188 = DIRECTION ( 'NONE',  ( -0.0000000000000000000, 0.0000000000000000000, 1.000000000000000000 ) ) ;
#189 = SECURITY_CLASSIFICATION_LEVEL ( 'unclassified' ) ;
#190 = CARTESIAN_POINT ( 'NONE',  ( 17.49999999999999600, 15.00000000000000200, 500.0000000000000000 ) ) ;
#191 = EDGE_LOOP ( 'NONE', ( #126, #115, #138, #172 ) ) ;
#192 = APPLICATION_PROTOCOL_DEFINITION ( 'international standard', 'config_control_design', 1994, #87 ) ;
#193 = EDGE_LOOP ( 'NONE', ( #145, #221, #224, #111 ) ) ;
#194 = APPROVAL_DATE_TIME ( #162, #79 ) ;
#195 =( NAMED_UNIT ( * ) PLANE_ANGLE_UNIT ( ) SI_UNIT ( $, .RADIAN. ) );
#196 = PERSON_AND_ORGANIZATION ( #1, #34 ) ;
#197 =( NAMED_UNIT ( * ) SI_UNIT ( $, .STERADIAN. ) SOLID_ANGLE_UNIT ( ) );
#198 = LINE ( 'NONE', #178, #20 ) ;
#199 = CARTESIAN_POINT ( 'NONE',  ( -17.50000000000000700, 15.00000000000000200, -500.0000000000000000 ) ) ;
#200 = APPROVAL_DATE_TIME ( #202, #80 ) ;
#201 = CARTESIAN_POINT ( 'NONE',  ( -17.50000000000000700, 15.00000000000000200, 500.0000000000000000 ) ) ;
#202 = DATE_AND_TIME ( #19, #69 ) ;
#203 = EDGE_LOOP ( 'NONE', ( #100, #134, #136, #168 ) ) ;
#204 = PERSON_AND_ORGANIZATION ( #1, #34 ) ;
#205 = PERSON_AND_ORGANIZATION_ROLE ( 'creator' ) ;
#206 = CARTESIAN_POINT ( 'NONE',  ( 17.50000000000000000, -14.99999999999999800, 500.0000000000000000 ) ) ;
#207 = DATE_AND_TIME ( #10, #52 ) ;
#208 = DIRECTION ( 'NONE',  ( 0.0000000000000000000, -0.0000000000000000000, 1.000000000000000000 ) ) ;
#209 = PERSON_AND_ORGANIZATION ( #1, #34 ) ;
#210 = DATE_AND_TIME ( #49, #77 ) ;
#211 = CARTESIAN_POINT ( 'NONE',  ( -17.50000000000000400, -14.99999999999999800, 500.0000000000000000 ) ) ;
#212 = DIRECTION ( 'NONE',  ( 1.156482317317871500E-016, -1.000000000000000000, 0.0000000000000000000 ) ) ;
#213 = CARTESIAN_POINT ( 'NONE',  ( -17.50000000000000700, 15.00000000000000200, 500.0000000000000000 ) ) ;
#214 = LINE ( 'NONE', #213, #32 ) ;
#215 = CARTESIAN_POINT ( 'NONE',  ( -17.50000000000000400, -14.99999999999999800, 500.0000000000000000 ) ) ;
#216 = ORIENTED_EDGE ( 'NONE', *, *, #81, .F. ) ;
#217 = APPROVAL_STATUS ( 'not_yet_approved' ) ;
#218 = APPLICATION_PROTOCOL_DEFINITION ( 'international standard', 'config_control_design', 1994, #86 ) ;
#219 = CARTESIAN_POINT ( 'NONE',  ( 17.49999999999999600, 15.00000000000000200, -500.0000000000000000 ) ) ;
#220 =( LENGTH_UNIT ( ) NAMED_UNIT ( * ) SI_UNIT ( .MILLI., .METRE. ) );
#221 = ORIENTED_EDGE ( 'NONE', *, *, #53, .F. ) ;
#222 = ORIENTED_EDGE ( 'NONE', *, *, #81, .T. ) ;
#223 = SHAPE_DEFINITION_REPRESENTATION ( #89, #2 ) ;
#224 = ORIENTED_EDGE ( 'NONE', *, *, #59, .F. ) ;
#225 = DIRECTION ( 'NONE',  ( 1.000000000000000000, 0.0000000000000000000, 0.0000000000000000000 ) ) ;
#226 = PERSON_AND_ORGANIZATION ( #1, #34 ) ;
#227 = PERSON_AND_ORGANIZATION_ROLE ( 'design_supplier' ) ;
#228 = APPROVAL_STATUS ( 'not_yet_approved' ) ;
#229 = DIRECTION ( 'NONE',  ( -2.312964634635743000E-016, 1.000000000000000000, -0.0000000000000000000 ) ) ;
#230 = PERSON_AND_ORGANIZATION ( #1, #34 ) ;
#231 = PERSON_AND_ORGANIZATION_ROLE ( 'classification_officer' ) ;
#232 = PERSON_AND_ORGANIZATION_ROLE ( 'creator' ) ;
#233 = PLANE ( 'NONE',  #22 ) ;
#234 = APPROVAL_DATE_TIME ( #207, #55 ) ;
#235 = DIRECTION ( 'NONE',  ( 1.000000000000000000, 0.0000000000000000000, 0.0000000000000000000 ) ) ;
#236 = DATE_TIME_ROLE ( 'classification_date' ) ;
#237 = LINE ( 'NONE', #219, #11 ) ;
ENDSEC;
END-ISO-10303-21;
