ISO-10303-21;
HEADER;
FILE_DESCRIPTION (( 'STEP AP203' ),
    '1' );
FILE_NAME ('sone3D.STEP',
    '2015-08-11T10:30:24',
    ( '' ),
    ( '' ),
    'SwSTEP 2.0',
    'SolidWorks 2012',
    '' );
FILE_SCHEMA (( 'CONFIG_CONTROL_DESIGN' ));
ENDSEC;

DATA;
#1 = PERSON ( 'UNSPECIFIED', 'UNSPECIFIED', 'UNSPECIFIED', ('UNSPECIFIED'), ('UNSPECIFIED'), ('UNSPECIFIED') ) ;
#2 = ADVANCED_BREP_SHAPE_REPRESENTATION ( 'sone3D', ( #90, #10 ), #88 ) ;
#3 = UNCERTAINTY_MEASURE_WITH_UNIT (LENGTH_MEASURE( 1.000000000000000100E-005 ), #180, 'distance_accuracy_value', 'NONE');
#4 = VECTOR ( 'NONE', #147, 1000.000000000000000 ) ;
#5 = APPROVAL_PERSON_ORGANIZATION ( #214, #80, #207 ) ;
#6 = VECTOR ( 'NONE', #171, 1000.000000000000000 ) ;
#7 = VECTOR ( 'NONE', #174, 1000.000000000000000 ) ;
#8 = VECTOR ( 'NONE', #188, 1000.000000000000000 ) ;
#9 = AXIS2_PLACEMENT_3D ( 'NONE', #166, #160, #163 ) ;
#10 = AXIS2_PLACEMENT_3D ( 'NONE', #233, #236, #220 ) ;
#11 = CC_DESIGN_SECURITY_CLASSIFICATION ( #28, ( #34 ) ) ;
#12 = COORDINATED_UNIVERSAL_TIME_OFFSET ( 9, 0, .AHEAD. ) ;
#13 = FACE_OUTER_BOUND ( 'NONE', #128, .T. ) ;
#14 = FACE_OUTER_BOUND ( 'NONE', #127, .T. ) ;
#15 = APPROVAL_PERSON_ORGANIZATION ( #205, #72, #232 ) ;
#16 = CC_DESIGN_APPROVAL ( #72, ( #34 ) ) ;
#17 = VECTOR ( 'NONE', #157, 1000.000000000000000 ) ;
#18 = COORDINATED_UNIVERSAL_TIME_OFFSET ( 9, 0, .AHEAD. ) ;
#19 = CC_DESIGN_APPROVAL ( #64, ( #28 ) ) ;
#20 = COORDINATED_UNIVERSAL_TIME_OFFSET ( 9, 0, .AHEAD. ) ;
#21 = COORDINATED_UNIVERSAL_TIME_OFFSET ( 9, 0, .AHEAD. ) ;
#22 = VECTOR ( 'NONE', #140, 1000.000000000000000 ) ;
#23 = CC_DESIGN_APPROVAL ( #80, ( #77 ) ) ;
#24 = CLOSED_SHELL ( 'NONE', ( #53, #51, #50, #73, #66, #56 ) ) ;
#25 = AXIS2_PLACEMENT_3D ( 'NONE', #152, #153, #154 ) ;
#26 = CALENDAR_DATE ( 2015, 11, 8 ) ;
#27 = VECTOR ( 'NONE', #162, 1000.000000000000000 ) ;
#28 = SECURITY_CLASSIFICATION ( '', '', #224 ) ;
#29 = CALENDAR_DATE ( 2015, 11, 8 ) ;
#30 = FACE_OUTER_BOUND ( 'NONE', #124, .T. ) ;
#31 = AXIS2_PLACEMENT_3D ( 'NONE', #142, #143, #144 ) ;
#32 = VECTOR ( 'NONE', #173, 1000.000000000000000 ) ;
#33 = CALENDAR_DATE ( 2015, 11, 8 ) ;
#34 = PRODUCT_DEFINITION_FORMATION_WITH_SPECIFIED_SOURCE ( 'ANY', '', #87, .NOT_KNOWN. ) ;
#35 = FACE_OUTER_BOUND ( 'NONE', #125, .T. ) ;
#36 = ORGANIZATION ( 'UNSPECIFIED', 'UNSPECIFIED', '' ) ;
#37 = VECTOR ( 'NONE', #211, 1000.000000000000000 ) ;
#38 = FACE_OUTER_BOUND ( 'NONE', #126, .T. ) ;
#39 = COORDINATED_UNIVERSAL_TIME_OFFSET ( 9, 0, .AHEAD. ) ;
#40 = VECTOR ( 'NONE', #216, 1000.000000000000000 ) ;
#41 = APPROVAL_PERSON_ORGANIZATION ( #208, #64, #196 ) ;
#42 = CALENDAR_DATE ( 2015, 11, 8 ) ;
#43 = FACE_OUTER_BOUND ( 'NONE', #129, .T. ) ;
#44 = AXIS2_PLACEMENT_3D ( 'NONE', #131, #132, #133 ) ;
#45 = AXIS2_PLACEMENT_3D ( 'NONE', #179, #227, #194 ) ;
#46 = CALENDAR_DATE ( 2015, 11, 8 ) ;
#47 = VECTOR ( 'NONE', #165, 1000.000000000000000 ) ;
#48 = VECTOR ( 'NONE', #151, 1000.000000000000000 ) ;
#49 = AXIS2_PLACEMENT_3D ( 'NONE', #135, #136, #137 ) ;
#50 = ADVANCED_FACE ( 'NONE', ( #43 ), #130, .F. ) ;
#51 = ADVANCED_FACE ( 'NONE', ( #13 ), #134, .F. ) ;
#52 = EDGE_CURVE ( 'NONE', #97, #98, #138, .T. ) ;
#53 = ADVANCED_FACE ( 'NONE', ( #30 ), #141, .F. ) ;
#54 = EDGE_CURVE ( 'NONE', #95, #93, #145, .T. ) ;
#55 = EDGE_CURVE ( 'NONE', #93, #96, #149, .T. ) ;
#56 = ADVANCED_FACE ( 'NONE', ( #14 ), #148, .F. ) ;
#57 = EDGE_CURVE ( 'NONE', #97, #99, #155, .T. ) ;
#58 = CC_DESIGN_PERSON_AND_ORGANIZATION_ASSIGNMENT ( #237, #209, ( #28 ) ) ;
#59 = EDGE_CURVE ( 'NONE', #99, #95, #159, .T. ) ;
#60 = CC_DESIGN_PERSON_AND_ORGANIZATION_ASSIGNMENT ( #222, #218, ( #87 ) ) ;
#61 = LOCAL_TIME ( 19, 30, 24.00000000000000000, #39 ) ;
#62 = PRODUCT_RELATED_PRODUCT_CATEGORY ( 'detail', '', ( #87 ) ) ;
#63 = CC_DESIGN_DATE_AND_TIME_ASSIGNMENT ( #221, #235, ( #28 ) ) ;
#64 = APPROVAL ( #178, 'UNSPECIFIED' ) ;
#65 = CC_DESIGN_PERSON_AND_ORGANIZATION_ASSIGNMENT ( #226, #225, ( #34 ) ) ;
#66 = ADVANCED_FACE ( 'NONE', ( #38 ), #158, .T. ) ;
#67 = EDGE_CURVE ( 'NONE', #95, #94, #164, .T. ) ;
#68 = EDGE_CURVE ( 'NONE', #96, #98, #168, .T. ) ;
#69 = EDGE_CURVE ( 'NONE', #98, #92, #176, .T. ) ;
#70 = EDGE_CURVE ( 'NONE', #92, #93, #169, .T. ) ;
#71 = LOCAL_TIME ( 19, 30, 24.00000000000000000, #12 ) ;
#72 = APPROVAL ( #204, 'UNSPECIFIED' ) ;
#73 = ADVANCED_FACE ( 'NONE', ( #35 ), #170, .F. ) ;
#74 = CC_DESIGN_DATE_AND_TIME_ASSIGNMENT ( #192, #215, ( #77 ) ) ;
#75 = EDGE_CURVE ( 'NONE', #94, #96, #195, .T. ) ;
#76 = EDGE_CURVE ( 'NONE', #94, #97, #189, .T. ) ;
#77 = PRODUCT_DEFINITION ( 'UNKNOWN', '', #34, #91 ) ;
#78 = CC_DESIGN_PERSON_AND_ORGANIZATION_ASSIGNMENT ( #181, #199, ( #77 ) ) ;
#79 = LOCAL_TIME ( 19, 30, 24.00000000000000000, #18 ) ;
#80 = APPROVAL ( #213, 'UNSPECIFIED' ) ;
#81 = CC_DESIGN_PERSON_AND_ORGANIZATION_ASSIGNMENT ( #191, #197, ( #34 ) ) ;
#82 = EDGE_CURVE ( 'NONE', #99, #92, #206, .T. ) ;
#83 = LOCAL_TIME ( 19, 30, 24.00000000000000000, #20 ) ;
#84 = LOCAL_TIME ( 19, 30, 24.00000000000000000, #21 ) ;
#85 = APPLICATION_CONTEXT ( 'configuration controlled 3d designs of mechanical parts and assemblies' ) ;
#86 = APPLICATION_CONTEXT ( 'configuration controlled 3d designs of mechanical parts and assemblies' ) ;
#87 = PRODUCT ( 'sone3D', 'sone3D', '', ( #229 ) ) ;
#88 =( GEOMETRIC_REPRESENTATION_CONTEXT ( 3 ) GLOBAL_UNCERTAINTY_ASSIGNED_CONTEXT ( ( #3 ) ) GLOBAL_UNIT_ASSIGNED_CONTEXT ( ( #180, #185, #228 ) ) REPRESENTATION_CONTEXT ( 'NONE', 'WORKASPACE' ) );
#89 = PRODUCT_DEFINITION_SHAPE ( 'NONE', 'NONE',  #77 ) ;
#90 = MANIFOLD_SOLID_BREP ( 'ÎÞ½ - µoµ1', #24 ) ;
#91 = DESIGN_CONTEXT ( 'detailed design', #85, 'design' ) ;
#92 = VERTEX_POINT ( 'NONE', #200 ) ;
#93 = VERTEX_POINT ( 'NONE', #210 ) ;
#94 = VERTEX_POINT ( 'NONE', #230 ) ;
#95 = VERTEX_POINT ( 'NONE', #184 ) ;
#96 = VERTEX_POINT ( 'NONE', #217 ) ;
#97 = VERTEX_POINT ( 'NONE', #193 ) ;
#98 = VERTEX_POINT ( 'NONE', #234 ) ;
#99 = VERTEX_POINT ( 'NONE', #190 ) ;
#100 = ORIENTED_EDGE ( 'NONE', *, *, #68, .T. ) ;
#101 = ORIENTED_EDGE ( 'NONE', *, *, #54, .T. ) ;
#102 = ORIENTED_EDGE ( 'NONE', *, *, #67, .F. ) ;
#103 = ORIENTED_EDGE ( 'NONE', *, *, #75, .F. ) ;
#104 = ORIENTED_EDGE ( 'NONE', *, *, #70, .T. ) ;
#105 = ORIENTED_EDGE ( 'NONE', *, *, #55, .T. ) ;
#106 = ORIENTED_EDGE ( 'NONE', *, *, #82, .T. ) ;
#107 = ORIENTED_EDGE ( 'NONE', *, *, #68, .F. ) ;
#108 = ORIENTED_EDGE ( 'NONE', *, *, #54, .F. ) ;
#109 = ORIENTED_EDGE ( 'NONE', *, *, #59, .F. ) ;
#110 = ORIENTED_EDGE ( 'NONE', *, *, #69, .F. ) ;
#111 = ORIENTED_EDGE ( 'NONE', *, *, #55, .F. ) ;
#112 = ORIENTED_EDGE ( 'NONE', *, *, #70, .F. ) ;
#113 = ORIENTED_EDGE ( 'NONE', *, *, #67, .T. ) ;
#114 = ORIENTED_EDGE ( 'NONE', *, *, #59, .T. ) ;
#115 = ORIENTED_EDGE ( 'NONE', *, *, #57, .T. ) ;
#116 = ORIENTED_EDGE ( 'NONE', *, *, #75, .T. ) ;
#117 = ORIENTED_EDGE ( 'NONE', *, *, #76, .T. ) ;
#118 = ORIENTED_EDGE ( 'NONE', *, *, #52, .F. ) ;
#119 = ORIENTED_EDGE ( 'NONE', *, *, #69, .T. ) ;
#120 = ORIENTED_EDGE ( 'NONE', *, *, #76, .F. ) ;
#121 = ORIENTED_EDGE ( 'NONE', *, *, #57, .F. ) ;
#122 = ORIENTED_EDGE ( 'NONE', *, *, #82, .F. ) ;
#123 = ORIENTED_EDGE ( 'NONE', *, *, #52, .T. ) ;
#124 = EDGE_LOOP ( 'NONE', ( #119, #122, #121, #123 ) ) ;
#125 = EDGE_LOOP ( 'NONE', ( #100, #118, #120, #116 ) ) ;
#126 = EDGE_LOOP ( 'NONE', ( #115, #114, #113, #117 ) ) ;
#127 = EDGE_LOOP ( 'NONE', ( #110, #107, #111, #112 ) ) ;
#128 = EDGE_LOOP ( 'NONE', ( #104, #108, #109, #106 ) ) ;
#129 = EDGE_LOOP ( 'NONE', ( #105, #103, #102, #101 ) ) ;
#130 = PLANE ( 'NONE',  #44 ) ;
#131 = CARTESIAN_POINT ( 'NONE',  ( 14.99999999999999300, 14.99999999999999600, 500.0000000000000000 ) ) ;
#132 = DIRECTION ( 'NONE',  ( -1.000000000000000000, -1.156482317317871500E-016, 0.0000000000000000000 ) ) ;
#133 = DIRECTION ( 'NONE',  ( 1.156482317317871500E-016, -1.000000000000000000, 0.0000000000000000000 ) ) ;
#134 = PLANE ( 'NONE',  #49 ) ;
#135 = CARTESIAN_POINT ( 'NONE',  ( -15.00000000000000700, -15.00000000000000500, 500.0000000000000000 ) ) ;
#136 = DIRECTION ( 'NONE',  ( 0.0000000000000000000, 1.000000000000000000, 0.0000000000000000000 ) ) ;
#137 = DIRECTION ( 'NONE',  ( 0.0000000000000000000, -0.0000000000000000000, 1.000000000000000000 ) ) ;
#138 = LINE ( 'NONE', #139, #22 ) ;
#139 = CARTESIAN_POINT ( 'NONE',  ( -15.00000000000000700, 14.99999999999999600, 500.0000000000000000 ) ) ;
#140 = DIRECTION ( 'NONE',  ( -0.0000000000000000000, -0.0000000000000000000, -1.000000000000000000 ) ) ;
#141 = PLANE ( 'NONE',  #31 ) ;
#142 = CARTESIAN_POINT ( 'NONE',  ( -15.00000000000000700, 14.99999999999999600, 500.0000000000000000 ) ) ;
#143 = DIRECTION ( 'NONE',  ( 1.000000000000000000, 0.0000000000000000000, -0.0000000000000000000 ) ) ;
#144 = DIRECTION ( 'NONE',  ( -0.0000000000000000000, 0.0000000000000000000, -1.000000000000000000 ) ) ;
#145 = LINE ( 'NONE', #146, #4 ) ;
#146 = CARTESIAN_POINT ( 'NONE',  ( 14.99999999999999600, -15.00000000000000500, 500.0000000000000000 ) ) ;
#147 = DIRECTION ( 'NONE',  ( -0.0000000000000000000, -0.0000000000000000000, -1.000000000000000000 ) ) ;
#148 = PLANE ( 'NONE',  #25 ) ;
#149 = LINE ( 'NONE', #150, #48 ) ;
#150 = CARTESIAN_POINT ( 'NONE',  ( 14.99999999999999300, 14.99999999999999600, -500.0000000000000000 ) ) ;
#151 = DIRECTION ( 'NONE',  ( -1.156482317317871500E-016, 1.000000000000000000, -0.0000000000000000000 ) ) ;
#152 = CARTESIAN_POINT ( 'NONE',  ( 0.0000000000000000000, 0.0000000000000000000, -500.0000000000000000 ) ) ;
#153 = DIRECTION ( 'NONE',  ( -0.0000000000000000000, 0.0000000000000000000, 1.000000000000000000 ) ) ;
#154 = DIRECTION ( 'NONE',  ( 1.000000000000000000, 0.0000000000000000000, 0.0000000000000000000 ) ) ;
#155 = LINE ( 'NONE', #156, #17 ) ;
#156 = CARTESIAN_POINT ( 'NONE',  ( -15.00000000000000700, 14.99999999999999600, 500.0000000000000000 ) ) ;
#157 = DIRECTION ( 'NONE',  ( 0.0000000000000000000, -1.000000000000000000, 0.0000000000000000000 ) ) ;
#158 = PLANE ( 'NONE',  #9 ) ;
#159 = LINE ( 'NONE', #167, #47 ) ;
#160 = DIRECTION ( 'NONE',  ( -0.0000000000000000000, 0.0000000000000000000, 1.000000000000000000 ) ) ;
#161 = CARTESIAN_POINT ( 'NONE',  ( 14.99999999999999300, 14.99999999999999600, 500.0000000000000000 ) ) ;
#162 = DIRECTION ( 'NONE',  ( -1.156482317317871500E-016, 1.000000000000000000, -0.0000000000000000000 ) ) ;
#163 = DIRECTION ( 'NONE',  ( 1.000000000000000000, 0.0000000000000000000, 0.0000000000000000000 ) ) ;
#164 = LINE ( 'NONE', #161, #27 ) ;
#165 = DIRECTION ( 'NONE',  ( 1.000000000000000000, 0.0000000000000000000, 0.0000000000000000000 ) ) ;
#166 = CARTESIAN_POINT ( 'NONE',  ( 0.0000000000000000000, 0.0000000000000000000, 500.0000000000000000 ) ) ;
#167 = CARTESIAN_POINT ( 'NONE',  ( -15.00000000000000700, -15.00000000000000500, 500.0000000000000000 ) ) ;
#168 = LINE ( 'NONE', #172, #7 ) ;
#169 = LINE ( 'NONE', #175, #32 ) ;
#170 = PLANE ( 'NONE',  #45 ) ;
#171 = DIRECTION ( 'NONE',  ( 0.0000000000000000000, -1.000000000000000000, 0.0000000000000000000 ) ) ;
#172 = CARTESIAN_POINT ( 'NONE',  ( -15.00000000000000700, 14.99999999999999600, -500.0000000000000000 ) ) ;
#173 = DIRECTION ( 'NONE',  ( 1.000000000000000000, 0.0000000000000000000, 0.0000000000000000000 ) ) ;
#174 = DIRECTION ( 'NONE',  ( -1.000000000000000000, -0.0000000000000000000, -0.0000000000000000000 ) ) ;
#175 = CARTESIAN_POINT ( 'NONE',  ( -15.00000000000000700, -15.00000000000000500, -500.0000000000000000 ) ) ;
#176 = LINE ( 'NONE', #177, #6 ) ;
#177 = CARTESIAN_POINT ( 'NONE',  ( -15.00000000000000700, 14.99999999999999600, -500.0000000000000000 ) ) ;
#178 = APPROVAL_STATUS ( 'not_yet_approved' ) ;
#179 = CARTESIAN_POINT ( 'NONE',  ( -15.00000000000000700, 14.99999999999999600, 500.0000000000000000 ) ) ;
#180 =( LENGTH_UNIT ( ) NAMED_UNIT ( * ) SI_UNIT ( .MILLI., .METRE. ) );
#181 = PERSON_AND_ORGANIZATION ( #1, #36 ) ;
#182 = APPROVAL_DATE_TIME ( #212, #80 ) ;
#183 = SHAPE_DEFINITION_REPRESENTATION ( #89, #2 ) ;
#184 = CARTESIAN_POINT ( 'NONE',  ( 14.99999999999999600, -15.00000000000000500, 500.0000000000000000 ) ) ;
#185 =( NAMED_UNIT ( * ) PLANE_ANGLE_UNIT ( ) SI_UNIT ( $, .RADIAN. ) );
#186 = APPROVAL_DATE_TIME ( #223, #72 ) ;
#187 = DATE_AND_TIME ( #42, #61 ) ;
#188 = DIRECTION ( 'NONE',  ( -0.0000000000000000000, -0.0000000000000000000, -1.000000000000000000 ) ) ;
#189 = LINE ( 'NONE', #198, #40 ) ;
#190 = CARTESIAN_POINT ( 'NONE',  ( -15.00000000000000700, -15.00000000000000500, 500.0000000000000000 ) ) ;
#191 = PERSON_AND_ORGANIZATION ( #1, #36 ) ;
#192 = DATE_AND_TIME ( #29, #84 ) ;
#193 = CARTESIAN_POINT ( 'NONE',  ( -15.00000000000000700, 14.99999999999999600, 500.0000000000000000 ) ) ;
#194 = DIRECTION ( 'NONE',  ( 0.0000000000000000000, -0.0000000000000000000, -1.000000000000000000 ) ) ;
#195 = LINE ( 'NONE', #219, #8 ) ;
#196 = APPROVAL_ROLE ( '' ) ;
#197 = PERSON_AND_ORGANIZATION_ROLE ( 'creator' ) ;
#198 = CARTESIAN_POINT ( 'NONE',  ( -15.00000000000000700, 14.99999999999999600, 500.0000000000000000 ) ) ;
#199 = PERSON_AND_ORGANIZATION_ROLE ( 'creator' ) ;
#200 = CARTESIAN_POINT ( 'NONE',  ( -15.00000000000000700, -15.00000000000000500, -500.0000000000000000 ) ) ;
#201 = APPROVAL_DATE_TIME ( #187, #64 ) ;
#202 = APPLICATION_PROTOCOL_DEFINITION ( 'international standard', 'config_control_design', 1994, #85 ) ;
#203 = APPLICATION_PROTOCOL_DEFINITION ( 'international standard', 'config_control_design', 1994, #86 ) ;
#204 = APPROVAL_STATUS ( 'not_yet_approved' ) ;
#205 = PERSON_AND_ORGANIZATION ( #1, #36 ) ;
#206 = LINE ( 'NONE', #231, #37 ) ;
#207 = APPROVAL_ROLE ( '' ) ;
#208 = PERSON_AND_ORGANIZATION ( #1, #36 ) ;
#209 = PERSON_AND_ORGANIZATION_ROLE ( 'classification_officer' ) ;
#210 = CARTESIAN_POINT ( 'NONE',  ( 14.99999999999999600, -15.00000000000000500, -500.0000000000000000 ) ) ;
#211 = DIRECTION ( 'NONE',  ( -0.0000000000000000000, -0.0000000000000000000, -1.000000000000000000 ) ) ;
#212 = DATE_AND_TIME ( #33, #79 ) ;
#213 = APPROVAL_STATUS ( 'not_yet_approved' ) ;
#214 = PERSON_AND_ORGANIZATION ( #1, #36 ) ;
#215 = DATE_TIME_ROLE ( 'creation_date' ) ;
#216 = DIRECTION ( 'NONE',  ( -1.000000000000000000, -0.0000000000000000000, -0.0000000000000000000 ) ) ;
#217 = CARTESIAN_POINT ( 'NONE',  ( 14.99999999999999300, 14.99999999999999600, -500.0000000000000000 ) ) ;
#218 = PERSON_AND_ORGANIZATION_ROLE ( 'design_owner' ) ;
#219 = CARTESIAN_POINT ( 'NONE',  ( 14.99999999999999300, 14.99999999999999600, 500.0000000000000000 ) ) ;
#220 = DIRECTION ( 'NONE',  ( 1.000000000000000000, 0.0000000000000000000, 0.0000000000000000000 ) ) ;
#221 = DATE_AND_TIME ( #26, #71 ) ;
#222 = PERSON_AND_ORGANIZATION ( #1, #36 ) ;
#223 = DATE_AND_TIME ( #46, #83 ) ;
#224 = SECURITY_CLASSIFICATION_LEVEL ( 'unclassified' ) ;
#225 = PERSON_AND_ORGANIZATION_ROLE ( 'design_supplier' ) ;
#226 = PERSON_AND_ORGANIZATION ( #1, #36 ) ;
#227 = DIRECTION ( 'NONE',  ( 0.0000000000000000000, -1.000000000000000000, 0.0000000000000000000 ) ) ;
#228 =( NAMED_UNIT ( * ) SI_UNIT ( $, .STERADIAN. ) SOLID_ANGLE_UNIT ( ) );
#229 = MECHANICAL_CONTEXT ( 'NONE', #86, 'mechanical' ) ;
#230 = CARTESIAN_POINT ( 'NONE',  ( 14.99999999999999300, 14.99999999999999600, 500.0000000000000000 ) ) ;
#231 = CARTESIAN_POINT ( 'NONE',  ( -15.00000000000000700, -15.00000000000000500, 500.0000000000000000 ) ) ;
#232 = APPROVAL_ROLE ( '' ) ;
#233 = CARTESIAN_POINT ( 'NONE',  ( 0.0000000000000000000, 0.0000000000000000000, 0.0000000000000000000 ) ) ;
#234 = CARTESIAN_POINT ( 'NONE',  ( -15.00000000000000700, 14.99999999999999600, -500.0000000000000000 ) ) ;
#235 = DATE_TIME_ROLE ( 'classification_date' ) ;
#236 = DIRECTION ( 'NONE',  ( 0.0000000000000000000, 0.0000000000000000000, 1.000000000000000000 ) ) ;
#237 = PERSON_AND_ORGANIZATION ( #1, #36 ) ;
ENDSEC;
END-ISO-10303-21;
