ISO-10303-21;
HEADER;
FILE_DESCRIPTION (( 'STEP AP203' ),
    '1' );
FILE_NAME ('sone3D.STEP',
    '2015-08-11T10:30:05',
    ( '' ),
    ( '' ),
    'SwSTEP 2.0',
    'SolidWorks 2012',
    '' );
FILE_SCHEMA (( 'CONFIG_CONTROL_DESIGN' ));
ENDSEC;

DATA;
#1 = PERSON ( 'UNSPECIFIED', 'UNSPECIFIED', 'UNSPECIFIED', ('UNSPECIFIED'), ('UNSPECIFIED'), ('UNSPECIFIED') ) ;
#2 = ADVANCED_BREP_SHAPE_REPRESENTATION ( 'sone3D', ( #90, #17 ), #88 ) ;
#3 = UNCERTAINTY_MEASURE_WITH_UNIT (LENGTH_MEASURE( 1.000000000000000100E-005 ), #236, 'distance_accuracy_value', 'NONE');
#4 = VECTOR ( 'NONE', #137, 1000.000000000000000 ) ;
#5 = VECTOR ( 'NONE', #146, 1000.000000000000000 ) ;
#6 = AXIS2_PLACEMENT_3D ( 'NONE', #141, #142, #143 ) ;
#7 = CC_DESIGN_SECURITY_CLASSIFICATION ( #19, ( #47 ) ) ;
#8 = VECTOR ( 'NONE', #233, 1000.000000000000000 ) ;
#9 = VECTOR ( 'NONE', #153, 1000.000000000000000 ) ;
#10 = APPROVAL_PERSON_ORGANIZATION ( #195, #74, #209 ) ;
#11 = CC_DESIGN_APPROVAL ( #74, ( #47 ) ) ;
#12 = VECTOR ( 'NONE', #133, 1000.000000000000000 ) ;
#13 = CC_DESIGN_APPROVAL ( #70, ( #79 ) ) ;
#14 = CC_DESIGN_APPROVAL ( #73, ( #19 ) ) ;
#15 = COORDINATED_UNIVERSAL_TIME_OFFSET ( 9, 0, .AHEAD. ) ;
#16 = FACE_OUTER_BOUND ( 'NONE', #126, .T. ) ;
#17 = AXIS2_PLACEMENT_3D ( 'NONE', #202, #188, #183 ) ;
#18 = APPROVAL_PERSON_ORGANIZATION ( #226, #73, #218 ) ;
#19 = SECURITY_CLASSIFICATION ( '', '', #219 ) ;
#20 = VECTOR ( 'NONE', #164, 1000.000000000000000 ) ;
#21 = AXIS2_PLACEMENT_3D ( 'NONE', #162, #163, #172 ) ;
#22 = CALENDAR_DATE ( 2015, 11, 8 ) ;
#23 = CALENDAR_DATE ( 2015, 11, 8 ) ;
#24 = APPROVAL_PERSON_ORGANIZATION ( #185, #70, #196 ) ;
#25 = AXIS2_PLACEMENT_3D ( 'NONE', #235, #222, #213 ) ;
#26 = VECTOR ( 'NONE', #171, 1000.000000000000000 ) ;
#27 = COORDINATED_UNIVERSAL_TIME_OFFSET ( 9, 0, .AHEAD. ) ;
#28 = COORDINATED_UNIVERSAL_TIME_OFFSET ( 9, 0, .AHEAD. ) ;
#29 = VECTOR ( 'NONE', #159, 1000.000000000000000 ) ;
#30 = COORDINATED_UNIVERSAL_TIME_OFFSET ( 9, 0, .AHEAD. ) ;
#31 = CALENDAR_DATE ( 2015, 11, 8 ) ;
#32 = VECTOR ( 'NONE', #156, 1000.000000000000000 ) ;
#33 = ORGANIZATION ( 'UNSPECIFIED', 'UNSPECIFIED', '' ) ;
#34 = AXIS2_PLACEMENT_3D ( 'NONE', #199, #204, #200 ) ;
#35 = CALENDAR_DATE ( 2015, 11, 8 ) ;
#36 = CLOSED_SHELL ( 'NONE', ( #60, #80, #84, #69, #83, #54 ) ) ;
#37 = AXIS2_PLACEMENT_3D ( 'NONE', #160, #168, #166 ) ;
#38 = FACE_OUTER_BOUND ( 'NONE', #125, .T. ) ;
#39 = FACE_OUTER_BOUND ( 'NONE', #129, .T. ) ;
#40 = AXIS2_PLACEMENT_3D ( 'NONE', #194, #232, #205 ) ;
#41 = VECTOR ( 'NONE', #140, 1000.000000000000000 ) ;
#42 = COORDINATED_UNIVERSAL_TIME_OFFSET ( 9, 0, .AHEAD. ) ;
#43 = VECTOR ( 'NONE', #150, 1000.000000000000000 ) ;
#44 = VECTOR ( 'NONE', #174, 1000.000000000000000 ) ;
#45 = FACE_OUTER_BOUND ( 'NONE', #127, .T. ) ;
#46 = FACE_OUTER_BOUND ( 'NONE', #124, .T. ) ;
#47 = PRODUCT_DEFINITION_FORMATION_WITH_SPECIFIED_SOURCE ( 'ANY', '', #87, .NOT_KNOWN. ) ;
#48 = FACE_OUTER_BOUND ( 'NONE', #128, .T. ) ;
#49 = CALENDAR_DATE ( 2015, 11, 8 ) ;
#50 = EDGE_CURVE ( 'NONE', #92, #95, #131, .T. ) ;
#51 = EDGE_CURVE ( 'NONE', #94, #97, #135, .T. ) ;
#52 = EDGE_CURVE ( 'NONE', #96, #95, #138, .T. ) ;
#53 = CC_DESIGN_PERSON_AND_ORGANIZATION_ASSIGNMENT ( #182, #206, ( #79 ) ) ;
#54 = ADVANCED_FACE ( 'NONE', ( #48 ), #134, .F. ) ;
#55 = EDGE_CURVE ( 'NONE', #95, #98, #144, .T. ) ;
#56 = EDGE_CURVE ( 'NONE', #99, #98, #148, .T. ) ;
#57 = EDGE_CURVE ( 'NONE', #92, #99, #151, .T. ) ;
#58 = EDGE_CURVE ( 'NONE', #98, #93, #154, .T. ) ;
#59 = EDGE_CURVE ( 'NONE', #97, #96, #157, .T. ) ;
#60 = ADVANCED_FACE ( 'NONE', ( #38 ), #147, .F. ) ;
#61 = LOCAL_TIME ( 19, 30, 5.000000000000000000, #42 ) ;
#62 = CC_DESIGN_DATE_AND_TIME_ASSIGNMENT ( #221, #225, ( #19 ) ) ;
#63 = CC_DESIGN_PERSON_AND_ORGANIZATION_ASSIGNMENT ( #215, #216, ( #47 ) ) ;
#64 = CC_DESIGN_PERSON_AND_ORGANIZATION_ASSIGNMENT ( #217, #212, ( #47 ) ) ;
#65 = CC_DESIGN_PERSON_AND_ORGANIZATION_ASSIGNMENT ( #224, #223, ( #19 ) ) ;
#66 = LOCAL_TIME ( 19, 30, 5.000000000000000000, #15 ) ;
#67 = LOCAL_TIME ( 19, 30, 5.000000000000000000, #27 ) ;
#68 = EDGE_CURVE ( 'NONE', #99, #94, #167, .T. ) ;
#69 = ADVANCED_FACE ( 'NONE', ( #45 ), #165, .F. ) ;
#70 = APPROVAL ( #130, 'UNSPECIFIED' ) ;
#71 = EDGE_CURVE ( 'NONE', #93, #96, #169, .T. ) ;
#72 = EDGE_CURVE ( 'NONE', #94, #93, #170, .T. ) ;
#73 = APPROVAL ( #227, 'UNSPECIFIED' ) ;
#74 = APPROVAL ( #214, 'UNSPECIFIED' ) ;
#75 = CC_DESIGN_PERSON_AND_ORGANIZATION_ASSIGNMENT ( #190, #184, ( #87 ) ) ;
#76 = EDGE_CURVE ( 'NONE', #97, #92, #220, .T. ) ;
#77 = PRODUCT_RELATED_PRODUCT_CATEGORY ( 'detail', '', ( #87 ) ) ;
#78 = LOCAL_TIME ( 19, 30, 5.000000000000000000, #28 ) ;
#79 = PRODUCT_DEFINITION ( 'UNKNOWN', '', #47, #89 ) ;
#80 = ADVANCED_FACE ( 'NONE', ( #46 ), #237, .F. ) ;
#81 = LOCAL_TIME ( 19, 30, 5.000000000000000000, #30 ) ;
#82 = CC_DESIGN_DATE_AND_TIME_ASSIGNMENT ( #208, #207, ( #79 ) ) ;
#83 = ADVANCED_FACE ( 'NONE', ( #39 ), #197, .T. ) ;
#84 = ADVANCED_FACE ( 'NONE', ( #16 ), #230, .F. ) ;
#85 = APPLICATION_CONTEXT ( 'configuration controlled 3d designs of mechanical parts and assemblies' ) ;
#86 = APPLICATION_CONTEXT ( 'configuration controlled 3d designs of mechanical parts and assemblies' ) ;
#87 = PRODUCT ( 'sone3D', 'sone3D', '', ( #176 ) ) ;
#88 =( GEOMETRIC_REPRESENTATION_CONTEXT ( 3 ) GLOBAL_UNCERTAINTY_ASSIGNED_CONTEXT ( ( #3 ) ) GLOBAL_UNIT_ASSIGNED_CONTEXT ( ( #236, #191, #189 ) ) REPRESENTATION_CONTEXT ( 'NONE', 'WORKASPACE' ) );
#89 = DESIGN_CONTEXT ( 'detailed design', #86, 'design' ) ;
#90 = MANIFOLD_SOLID_BREP ( 'ÎÞ½ - µoµ1', #36 ) ;
#91 = PRODUCT_DEFINITION_SHAPE ( 'NONE', 'NONE',  #79 ) ;
#92 = VERTEX_POINT ( 'NONE', #234 ) ;
#93 = VERTEX_POINT ( 'NONE', #180 ) ;
#94 = VERTEX_POINT ( 'NONE', #203 ) ;
#95 = VERTEX_POINT ( 'NONE', #231 ) ;
#96 = VERTEX_POINT ( 'NONE', #178 ) ;
#97 = VERTEX_POINT ( 'NONE', #177 ) ;
#98 = VERTEX_POINT ( 'NONE', #187 ) ;
#99 = VERTEX_POINT ( 'NONE', #179 ) ;
#100 = ORIENTED_EDGE ( 'NONE', *, *, #52, .T. ) ;
#101 = ORIENTED_EDGE ( 'NONE', *, *, #72, .T. ) ;
#102 = ORIENTED_EDGE ( 'NONE', *, *, #51, .F. ) ;
#103 = ORIENTED_EDGE ( 'NONE', *, *, #59, .F. ) ;
#104 = ORIENTED_EDGE ( 'NONE', *, *, #58, .T. ) ;
#105 = ORIENTED_EDGE ( 'NONE', *, *, #71, .T. ) ;
#106 = ORIENTED_EDGE ( 'NONE', *, *, #56, .T. ) ;
#107 = ORIENTED_EDGE ( 'NONE', *, *, #72, .F. ) ;
#108 = ORIENTED_EDGE ( 'NONE', *, *, #68, .F. ) ;
#109 = ORIENTED_EDGE ( 'NONE', *, *, #55, .F. ) ;
#110 = ORIENTED_EDGE ( 'NONE', *, *, #52, .F. ) ;
#111 = ORIENTED_EDGE ( 'NONE', *, *, #76, .T. ) ;
#112 = ORIENTED_EDGE ( 'NONE', *, *, #55, .T. ) ;
#113 = ORIENTED_EDGE ( 'NONE', *, *, #50, .F. ) ;
#114 = ORIENTED_EDGE ( 'NONE', *, *, #58, .F. ) ;
#115 = ORIENTED_EDGE ( 'NONE', *, *, #51, .T. ) ;
#116 = ORIENTED_EDGE ( 'NONE', *, *, #57, .T. ) ;
#117 = ORIENTED_EDGE ( 'NONE', *, *, #76, .F. ) ;
#118 = ORIENTED_EDGE ( 'NONE', *, *, #71, .F. ) ;
#119 = ORIENTED_EDGE ( 'NONE', *, *, #59, .T. ) ;
#120 = ORIENTED_EDGE ( 'NONE', *, *, #68, .T. ) ;
#121 = ORIENTED_EDGE ( 'NONE', *, *, #50, .T. ) ;
#122 = ORIENTED_EDGE ( 'NONE', *, *, #57, .F. ) ;
#123 = ORIENTED_EDGE ( 'NONE', *, *, #56, .F. ) ;
#124 = EDGE_LOOP ( 'NONE', ( #104, #107, #108, #106 ) ) ;
#125 = EDGE_LOOP ( 'NONE', ( #112, #123, #122, #121 ) ) ;
#126 = EDGE_LOOP ( 'NONE', ( #105, #103, #102, #101 ) ) ;
#127 = EDGE_LOOP ( 'NONE', ( #100, #113, #117, #119 ) ) ;
#128 = EDGE_LOOP ( 'NONE', ( #109, #110, #118, #114 ) ) ;
#129 = EDGE_LOOP ( 'NONE', ( #116, #120, #115, #111 ) ) ;
#130 = APPROVAL_STATUS ( 'not_yet_approved' ) ;
#131 = LINE ( 'NONE', #132, #12 ) ;
#132 = CARTESIAN_POINT ( 'NONE',  ( -20.00000000000000400, 9.999999999999996400, 500.0000000000000000 ) ) ;
#133 = DIRECTION ( 'NONE',  ( -0.0000000000000000000, -0.0000000000000000000, -1.000000000000000000 ) ) ;
#134 = PLANE ( 'NONE',  #6 ) ;
#135 = LINE ( 'NONE', #136, #4 ) ;
#136 = CARTESIAN_POINT ( 'NONE',  ( 19.99999999999999600, 9.999999999999996400, 500.0000000000000000 ) ) ;
#137 = DIRECTION ( 'NONE',  ( -0.0000000000000000000, 1.000000000000000000, -0.0000000000000000000 ) ) ;
#138 = LINE ( 'NONE', #139, #41 ) ;
#139 = CARTESIAN_POINT ( 'NONE',  ( -20.00000000000000400, 9.999999999999996400, -500.0000000000000000 ) ) ;
#140 = DIRECTION ( 'NONE',  ( -1.000000000000000000, -0.0000000000000000000, -0.0000000000000000000 ) ) ;
#141 = CARTESIAN_POINT ( 'NONE',  ( 0.0000000000000000000, 0.0000000000000000000, -500.0000000000000000 ) ) ;
#142 = DIRECTION ( 'NONE',  ( -0.0000000000000000000, 0.0000000000000000000, 1.000000000000000000 ) ) ;
#143 = DIRECTION ( 'NONE',  ( 1.000000000000000000, 0.0000000000000000000, 0.0000000000000000000 ) ) ;
#144 = LINE ( 'NONE', #145, #5 ) ;
#145 = CARTESIAN_POINT ( 'NONE',  ( -20.00000000000000400, 9.999999999999996400, -500.0000000000000000 ) ) ;
#146 = DIRECTION ( 'NONE',  ( 1.734723475976807100E-016, -1.000000000000000000, 0.0000000000000000000 ) ) ;
#147 = PLANE ( 'NONE',  #37 ) ;
#148 = LINE ( 'NONE', #149, #43 ) ;
#149 = CARTESIAN_POINT ( 'NONE',  ( -20.00000000000000000, -10.00000000000000400, 500.0000000000000000 ) ) ;
#150 = DIRECTION ( 'NONE',  ( -0.0000000000000000000, -0.0000000000000000000, -1.000000000000000000 ) ) ;
#151 = LINE ( 'NONE', #152, #9 ) ;
#152 = CARTESIAN_POINT ( 'NONE',  ( -20.00000000000000400, 9.999999999999996400, 500.0000000000000000 ) ) ;
#153 = DIRECTION ( 'NONE',  ( 1.734723475976807100E-016, -1.000000000000000000, 0.0000000000000000000 ) ) ;
#154 = LINE ( 'NONE', #155, #32 ) ;
#155 = CARTESIAN_POINT ( 'NONE',  ( -20.00000000000000000, -10.00000000000000400, -500.0000000000000000 ) ) ;
#156 = DIRECTION ( 'NONE',  ( 1.000000000000000000, 0.0000000000000000000, 0.0000000000000000000 ) ) ;
#157 = LINE ( 'NONE', #158, #29 ) ;
#158 = CARTESIAN_POINT ( 'NONE',  ( 19.99999999999999600, 9.999999999999996400, 500.0000000000000000 ) ) ;
#159 = DIRECTION ( 'NONE',  ( -0.0000000000000000000, -0.0000000000000000000, -1.000000000000000000 ) ) ;
#160 = CARTESIAN_POINT ( 'NONE',  ( -20.00000000000000400, 9.999999999999996400, 500.0000000000000000 ) ) ;
#161 = CARTESIAN_POINT ( 'NONE',  ( -20.00000000000000000, -10.00000000000000400, 500.0000000000000000 ) ) ;
#162 = CARTESIAN_POINT ( 'NONE',  ( -20.00000000000000400, 9.999999999999996400, 500.0000000000000000 ) ) ;
#163 = DIRECTION ( 'NONE',  ( 0.0000000000000000000, -1.000000000000000000, 0.0000000000000000000 ) ) ;
#164 = DIRECTION ( 'NONE',  ( 1.000000000000000000, 0.0000000000000000000, 0.0000000000000000000 ) ) ;
#165 = PLANE ( 'NONE',  #21 ) ;
#166 = DIRECTION ( 'NONE',  ( -1.734723475976807100E-016, 1.000000000000000000, 0.0000000000000000000 ) ) ;
#167 = LINE ( 'NONE', #161, #20 ) ;
#168 = DIRECTION ( 'NONE',  ( 1.000000000000000000, 1.734723475976807100E-016, -0.0000000000000000000 ) ) ;
#169 = LINE ( 'NONE', #173, #44 ) ;
#170 = LINE ( 'NONE', #175, #26 ) ;
#171 = DIRECTION ( 'NONE',  ( -0.0000000000000000000, -0.0000000000000000000, -1.000000000000000000 ) ) ;
#172 = DIRECTION ( 'NONE',  ( 0.0000000000000000000, -0.0000000000000000000, -1.000000000000000000 ) ) ;
#173 = CARTESIAN_POINT ( 'NONE',  ( 19.99999999999999600, 9.999999999999996400, -500.0000000000000000 ) ) ;
#174 = DIRECTION ( 'NONE',  ( -0.0000000000000000000, 1.000000000000000000, -0.0000000000000000000 ) ) ;
#175 = CARTESIAN_POINT ( 'NONE',  ( 19.99999999999999600, -10.00000000000000400, 500.0000000000000000 ) ) ;
#176 = MECHANICAL_CONTEXT ( 'NONE', #85, 'mechanical' ) ;
#177 = CARTESIAN_POINT ( 'NONE',  ( 19.99999999999999600, 9.999999999999996400, 500.0000000000000000 ) ) ;
#178 = CARTESIAN_POINT ( 'NONE',  ( 19.99999999999999600, 9.999999999999996400, -500.0000000000000000 ) ) ;
#179 = CARTESIAN_POINT ( 'NONE',  ( -20.00000000000000000, -10.00000000000000400, 500.0000000000000000 ) ) ;
#180 = CARTESIAN_POINT ( 'NONE',  ( 19.99999999999999600, -10.00000000000000400, -500.0000000000000000 ) ) ;
#181 = SHAPE_DEFINITION_REPRESENTATION ( #91, #2 ) ;
#182 = PERSON_AND_ORGANIZATION ( #1, #33 ) ;
#183 = DIRECTION ( 'NONE',  ( 1.000000000000000000, 0.0000000000000000000, 0.0000000000000000000 ) ) ;
#184 = PERSON_AND_ORGANIZATION_ROLE ( 'design_owner' ) ;
#185 = PERSON_AND_ORGANIZATION ( #1, #33 ) ;
#186 = APPLICATION_PROTOCOL_DEFINITION ( 'international standard', 'config_control_design', 1994, #86 ) ;
#187 = CARTESIAN_POINT ( 'NONE',  ( -20.00000000000000000, -10.00000000000000400, -500.0000000000000000 ) ) ;
#188 = DIRECTION ( 'NONE',  ( 0.0000000000000000000, 0.0000000000000000000, 1.000000000000000000 ) ) ;
#189 =( NAMED_UNIT ( * ) SI_UNIT ( $, .STERADIAN. ) SOLID_ANGLE_UNIT ( ) );
#190 = PERSON_AND_ORGANIZATION ( #1, #33 ) ;
#191 =( NAMED_UNIT ( * ) PLANE_ANGLE_UNIT ( ) SI_UNIT ( $, .RADIAN. ) );
#192 = DATE_AND_TIME ( #22, #81 ) ;
#193 = APPROVAL_DATE_TIME ( #192, #70 ) ;
#194 = CARTESIAN_POINT ( 'NONE',  ( 19.99999999999999600, 9.999999999999996400, 500.0000000000000000 ) ) ;
#195 = PERSON_AND_ORGANIZATION ( #1, #33 ) ;
#196 = APPROVAL_ROLE ( '' ) ;
#197 = PLANE ( 'NONE',  #34 ) ;
#198 = APPROVAL_DATE_TIME ( #210, #74 ) ;
#199 = CARTESIAN_POINT ( 'NONE',  ( 0.0000000000000000000, 0.0000000000000000000, 500.0000000000000000 ) ) ;
#200 = DIRECTION ( 'NONE',  ( 1.000000000000000000, 0.0000000000000000000, 0.0000000000000000000 ) ) ;
#201 = APPLICATION_PROTOCOL_DEFINITION ( 'international standard', 'config_control_design', 1994, #85 ) ;
#202 = CARTESIAN_POINT ( 'NONE',  ( 0.0000000000000000000, 0.0000000000000000000, 0.0000000000000000000 ) ) ;
#203 = CARTESIAN_POINT ( 'NONE',  ( 19.99999999999999600, -10.00000000000000400, 500.0000000000000000 ) ) ;
#204 = DIRECTION ( 'NONE',  ( -0.0000000000000000000, 0.0000000000000000000, 1.000000000000000000 ) ) ;
#205 = DIRECTION ( 'NONE',  ( 0.0000000000000000000, 0.0000000000000000000, 1.000000000000000000 ) ) ;
#206 = PERSON_AND_ORGANIZATION_ROLE ( 'creator' ) ;
#207 = DATE_TIME_ROLE ( 'creation_date' ) ;
#208 = DATE_AND_TIME ( #49, #78 ) ;
#209 = APPROVAL_ROLE ( '' ) ;
#210 = DATE_AND_TIME ( #35, #61 ) ;
#211 = CARTESIAN_POINT ( 'NONE',  ( -20.00000000000000400, 9.999999999999996400, 500.0000000000000000 ) ) ;
#212 = PERSON_AND_ORGANIZATION_ROLE ( 'design_supplier' ) ;
#213 = DIRECTION ( 'NONE',  ( 0.0000000000000000000, -0.0000000000000000000, 1.000000000000000000 ) ) ;
#214 = APPROVAL_STATUS ( 'not_yet_approved' ) ;
#215 = PERSON_AND_ORGANIZATION ( #1, #33 ) ;
#216 = PERSON_AND_ORGANIZATION_ROLE ( 'creator' ) ;
#217 = PERSON_AND_ORGANIZATION ( #1, #33 ) ;
#218 = APPROVAL_ROLE ( '' ) ;
#219 = SECURITY_CLASSIFICATION_LEVEL ( 'unclassified' ) ;
#220 = LINE ( 'NONE', #211, #8 ) ;
#221 = DATE_AND_TIME ( #31, #66 ) ;
#222 = DIRECTION ( 'NONE',  ( 0.0000000000000000000, 1.000000000000000000, 0.0000000000000000000 ) ) ;
#223 = PERSON_AND_ORGANIZATION_ROLE ( 'classification_officer' ) ;
#224 = PERSON_AND_ORGANIZATION ( #1, #33 ) ;
#225 = DATE_TIME_ROLE ( 'classification_date' ) ;
#226 = PERSON_AND_ORGANIZATION ( #1, #33 ) ;
#227 = APPROVAL_STATUS ( 'not_yet_approved' ) ;
#228 = APPROVAL_DATE_TIME ( #229, #73 ) ;
#229 = DATE_AND_TIME ( #23, #67 ) ;
#230 = PLANE ( 'NONE',  #40 ) ;
#231 = CARTESIAN_POINT ( 'NONE',  ( -20.00000000000000400, 9.999999999999996400, -500.0000000000000000 ) ) ;
#232 = DIRECTION ( 'NONE',  ( -1.000000000000000000, 0.0000000000000000000, 0.0000000000000000000 ) ) ;
#233 = DIRECTION ( 'NONE',  ( -1.000000000000000000, -0.0000000000000000000, -0.0000000000000000000 ) ) ;
#234 = CARTESIAN_POINT ( 'NONE',  ( -20.00000000000000400, 9.999999999999996400, 500.0000000000000000 ) ) ;
#235 = CARTESIAN_POINT ( 'NONE',  ( -20.00000000000000000, -10.00000000000000400, 500.0000000000000000 ) ) ;
#236 =( LENGTH_UNIT ( ) NAMED_UNIT ( * ) SI_UNIT ( .MILLI., .METRE. ) );
#237 = PLANE ( 'NONE',  #25 ) ;
ENDSEC;
END-ISO-10303-21;
