ISO-10303-21;
HEADER;
FILE_DESCRIPTION (( 'STEP AP203' ),
    '1' );
FILE_NAME ('sone3D.STEP',
    '2015-08-11T10:29:50',
    ( '' ),
    ( '' ),
    'SwSTEP 2.0',
    'SolidWorks 2012',
    '' );
FILE_SCHEMA (( 'CONFIG_CONTROL_DESIGN' ));
ENDSEC;

DATA;
#1 = ADVANCED_BREP_SHAPE_REPRESENTATION ( 'sone3D', ( #90, #6 ), #88 ) ;
#2 = UNCERTAINTY_MEASURE_WITH_UNIT (LENGTH_MEASURE( 1.000000000000000100E-005 ), #210, 'distance_accuracy_value', 'NONE');
#3 = PERSON ( 'UNSPECIFIED', 'UNSPECIFIED', 'UNSPECIFIED', ('UNSPECIFIED'), ('UNSPECIFIED'), ('UNSPECIFIED') ) ;
#4 = CALENDAR_DATE ( 2015, 11, 8 ) ;
#5 = COORDINATED_UNIVERSAL_TIME_OFFSET ( 9, 0, .AHEAD. ) ;
#6 = AXIS2_PLACEMENT_3D ( 'NONE', #231, #232, #222 ) ;
#7 = VECTOR ( 'NONE', #182, 1000.000000000000000 ) ;
#8 = APPROVAL_PERSON_ORGANIZATION ( #233, #77, #216 ) ;
#9 = CC_DESIGN_APPROVAL ( #75, ( #28 ) ) ;
#10 = CC_DESIGN_SECURITY_CLASSIFICATION ( #28, ( #47 ) ) ;
#11 = APPROVAL_PERSON_ORGANIZATION ( #189, #75, #94 ) ;
#12 = VECTOR ( 'NONE', #137, 1000.000000000000000 ) ;
#13 = FACE_OUTER_BOUND ( 'NONE', #129, .T. ) ;
#14 = AXIS2_PLACEMENT_3D ( 'NONE', #148, #149, #150 ) ;
#15 = FACE_OUTER_BOUND ( 'NONE', #132, .T. ) ;
#16 = CLOSED_SHELL ( 'NONE', ( #82, #69, #71, #61, #55, #72 ) ) ;
#17 = AXIS2_PLACEMENT_3D ( 'NONE', #93, #211, #123 ) ;
#18 = CC_DESIGN_APPROVAL ( #63, ( #47 ) ) ;
#19 = AXIS2_PLACEMENT_3D ( 'NONE', #174, #199, #228 ) ;
#20 = FACE_OUTER_BOUND ( 'NONE', #131, .T. ) ;
#21 = COORDINATED_UNIVERSAL_TIME_OFFSET ( 9, 0, .AHEAD. ) ;
#22 = CALENDAR_DATE ( 2015, 11, 8 ) ;
#23 = VECTOR ( 'NONE', #163, 1000.000000000000000 ) ;
#24 = CC_DESIGN_APPROVAL ( #77, ( #73 ) ) ;
#25 = COORDINATED_UNIVERSAL_TIME_OFFSET ( 9, 0, .AHEAD. ) ;
#26 = APPROVAL_PERSON_ORGANIZATION ( #200, #63, #220 ) ;
#27 = FACE_OUTER_BOUND ( 'NONE', #134, .T. ) ;
#28 = SECURITY_CLASSIFICATION ( '', '', #188 ) ;
#29 = COORDINATED_UNIVERSAL_TIME_OFFSET ( 9, 0, .AHEAD. ) ;
#30 = AXIS2_PLACEMENT_3D ( 'NONE', #164, #172, #170 ) ;
#31 = COORDINATED_UNIVERSAL_TIME_OFFSET ( 9, 0, .AHEAD. ) ;
#32 = FACE_OUTER_BOUND ( 'NONE', #133, .T. ) ;
#33 = VECTOR ( 'NONE', #160, 1000.000000000000000 ) ;
#34 = VECTOR ( 'NONE', #144, 1000.000000000000000 ) ;
#35 = VECTOR ( 'NONE', #112, 1000.000000000000000 ) ;
#36 = CALENDAR_DATE ( 2015, 11, 8 ) ;
#37 = AXIS2_PLACEMENT_3D ( 'NONE', #207, #214, #234 ) ;
#38 = FACE_OUTER_BOUND ( 'NONE', #128, .T. ) ;
#39 = AXIS2_PLACEMENT_3D ( 'NONE', #166, #167, #177 ) ;
#40 = CALENDAR_DATE ( 2015, 11, 8 ) ;
#41 = CALENDAR_DATE ( 2015, 11, 8 ) ;
#42 = ORGANIZATION ( 'UNSPECIFIED', 'UNSPECIFIED', '' ) ;
#43 = VECTOR ( 'NONE', #157, 1000.000000000000000 ) ;
#44 = VECTOR ( 'NONE', #147, 1000.000000000000000 ) ;
#45 = VECTOR ( 'NONE', #153, 1000.000000000000000 ) ;
#46 = VECTOR ( 'NONE', #141, 1000.000000000000000 ) ;
#47 = PRODUCT_DEFINITION_FORMATION_WITH_SPECIFIED_SOURCE ( 'ANY', '', #87, .NOT_KNOWN. ) ;
#48 = VECTOR ( 'NONE', #179, 1000.000000000000000 ) ;
#49 = VECTOR ( 'NONE', #168, 1000.000000000000000 ) ;
#50 = EDGE_CURVE ( 'NONE', #97, #98, #135, .T. ) ;
#51 = EDGE_CURVE ( 'NONE', #96, #100, #139, .T. ) ;
#52 = EDGE_CURVE ( 'NONE', #98, #185, #142, .T. ) ;
#53 = LOCAL_TIME ( 19, 29, 50.00000000000000000, #25 ) ;
#54 = EDGE_CURVE ( 'NONE', #185, #92, #145, .T. ) ;
#55 = ADVANCED_FACE ( 'NONE', ( #13 ), #138, .T. ) ;
#56 = EDGE_CURVE ( 'NONE', #100, #185, #151, .T. ) ;
#57 = EDGE_CURVE ( 'NONE', #95, #92, #155, .T. ) ;
#58 = CC_DESIGN_PERSON_AND_ORGANIZATION_ASSIGNMENT ( #212, #205, ( #87 ) ) ;
#59 = EDGE_CURVE ( 'NONE', #92, #97, #158, .T. ) ;
#60 = EDGE_CURVE ( 'NONE', #96, #98, #161, .T. ) ;
#61 = ADVANCED_FACE ( 'NONE', ( #38 ), #154, .F. ) ;
#62 = EDGE_CURVE ( 'NONE', #95, #99, #171, .T. ) ;
#63 = APPROVAL ( #183, 'UNSPECIFIED' ) ;
#64 = CC_DESIGN_DATE_AND_TIME_ASSIGNMENT ( #226, #237, ( #73 ) ) ;
#65 = CC_DESIGN_PERSON_AND_ORGANIZATION_ASSIGNMENT ( #193, #230, ( #28 ) ) ;
#66 = LOCAL_TIME ( 19, 29, 50.00000000000000000, #29 ) ;
#67 = CC_DESIGN_DATE_AND_TIME_ASSIGNMENT ( #229, #219, ( #28 ) ) ;
#68 = PRODUCT_RELATED_PRODUCT_CATEGORY ( 'detail', '', ( #87 ) ) ;
#69 = ADVANCED_FACE ( 'NONE', ( #15 ), #169, .F. ) ;
#70 = EDGE_CURVE ( 'NONE', #99, #97, #173, .T. ) ;
#71 = ADVANCED_FACE ( 'NONE', ( #32 ), #176, .F. ) ;
#72 = ADVANCED_FACE ( 'NONE', ( #20 ), #175, .F. ) ;
#73 = PRODUCT_DEFINITION ( 'UNKNOWN', '', #47, #91 ) ;
#74 = EDGE_CURVE ( 'NONE', #100, #95, #130, .T. ) ;
#75 = APPROVAL ( #215, 'UNSPECIFIED' ) ;
#76 = CC_DESIGN_PERSON_AND_ORGANIZATION_ASSIGNMENT ( #217, #218, ( #47 ) ) ;
#77 = APPROVAL ( #196, 'UNSPECIFIED' ) ;
#78 = CC_DESIGN_PERSON_AND_ORGANIZATION_ASSIGNMENT ( #194, #236, ( #47 ) ) ;
#79 = CC_DESIGN_PERSON_AND_ORGANIZATION_ASSIGNMENT ( #202, #187, ( #73 ) ) ;
#80 = LOCAL_TIME ( 19, 29, 50.00000000000000000, #5 ) ;
#81 = EDGE_CURVE ( 'NONE', #99, #96, #181, .T. ) ;
#82 = ADVANCED_FACE ( 'NONE', ( #27 ), #186, .F. ) ;
#83 = LOCAL_TIME ( 19, 29, 50.00000000000000000, #31 ) ;
#84 = LOCAL_TIME ( 19, 29, 50.00000000000000000, #21 ) ;
#85 = APPLICATION_CONTEXT ( 'configuration controlled 3d designs of mechanical parts and assemblies' ) ;
#86 = APPLICATION_CONTEXT ( 'configuration controlled 3d designs of mechanical parts and assemblies' ) ;
#87 = PRODUCT ( 'sone3D', 'sone3D', '', ( #213 ) ) ;
#88 =( GEOMETRIC_REPRESENTATION_CONTEXT ( 3 ) GLOBAL_UNCERTAINTY_ASSIGNED_CONTEXT ( ( #2 ) ) GLOBAL_UNIT_ASSIGNED_CONTEXT ( ( #210, #227, #223 ) ) REPRESENTATION_CONTEXT ( 'NONE', 'WORKASPACE' ) );
#89 = PRODUCT_DEFINITION_SHAPE ( 'NONE', 'NONE',  #73 ) ;
#90 = MANIFOLD_SOLID_BREP ( 'ÎÞ½ - µoµ1', #16 ) ;
#91 = DESIGN_CONTEXT ( 'detailed design', #85, 'design' ) ;
#92 = VERTEX_POINT ( 'NONE', #110 ) ;
#93 = CARTESIAN_POINT ( 'NONE',  ( -17.50000000000000000, 9.999999999999998200, 500.0000000000000000 ) ) ;
#94 = APPROVAL_ROLE ( '' ) ;
#95 = VERTEX_POINT ( 'NONE', #190 ) ;
#96 = VERTEX_POINT ( 'NONE', #192 ) ;
#97 = VERTEX_POINT ( 'NONE', #198 ) ;
#98 = VERTEX_POINT ( 'NONE', #208 ) ;
#99 = VERTEX_POINT ( 'NONE', #221 ) ;
#100 = VERTEX_POINT ( 'NONE', #203 ) ;
#101 = ORIENTED_EDGE ( 'NONE', *, *, #52, .T. ) ;
#102 = ORIENTED_EDGE ( 'NONE', *, *, #81, .T. ) ;
#103 = ORIENTED_EDGE ( 'NONE', *, *, #70, .T. ) ;
#104 = ORIENTED_EDGE ( 'NONE', *, *, #81, .F. ) ;
#105 = ORIENTED_EDGE ( 'NONE', *, *, #60, .F. ) ;
#106 = ORIENTED_EDGE ( 'NONE', *, *, #59, .T. ) ;
#107 = ORIENTED_EDGE ( 'NONE', *, *, #51, .T. ) ;
#108 = ORIENTED_EDGE ( 'NONE', *, *, #62, .T. ) ;
#109 = ORIENTED_EDGE ( 'NONE', *, *, #50, .T. ) ;
#110 = CARTESIAN_POINT ( 'NONE',  ( -17.49999999999999600, -10.00000000000000200, -500.0000000000000000 ) ) ;
#111 = ORIENTED_EDGE ( 'NONE', *, *, #57, .T. ) ;
#112 = DIRECTION ( 'NONE',  ( -0.0000000000000000000, 1.000000000000000000, -0.0000000000000000000 ) ) ;
#113 = ORIENTED_EDGE ( 'NONE', *, *, #59, .F. ) ;
#114 = ORIENTED_EDGE ( 'NONE', *, *, #70, .F. ) ;
#115 = ORIENTED_EDGE ( 'NONE', *, *, #60, .T. ) ;
#116 = ORIENTED_EDGE ( 'NONE', *, *, #62, .F. ) ;
#117 = ORIENTED_EDGE ( 'NONE', *, *, #50, .F. ) ;
#118 = ORIENTED_EDGE ( 'NONE', *, *, #54, .T. ) ;
#119 = ORIENTED_EDGE ( 'NONE', *, *, #74, .F. ) ;
#120 = ORIENTED_EDGE ( 'NONE', *, *, #51, .F. ) ;
#121 = ORIENTED_EDGE ( 'NONE', *, *, #56, .F. ) ;
#122 = ORIENTED_EDGE ( 'NONE', *, *, #52, .F. ) ;
#123 = DIRECTION ( 'NONE',  ( -3.469446951953614200E-016, 1.000000000000000000, 0.0000000000000000000 ) ) ;
#124 = ORIENTED_EDGE ( 'NONE', *, *, #57, .F. ) ;
#125 = ORIENTED_EDGE ( 'NONE', *, *, #56, .T. ) ;
#126 = ORIENTED_EDGE ( 'NONE', *, *, #54, .F. ) ;
#127 = ORIENTED_EDGE ( 'NONE', *, *, #74, .T. ) ;
#128 = EDGE_LOOP ( 'NONE', ( #101, #121, #120, #115 ) ) ;
#129 = EDGE_LOOP ( 'NONE', ( #127, #108, #102, #107 ) ) ;
#130 = LINE ( 'NONE', #206, #7 ) ;
#131 = EDGE_LOOP ( 'NONE', ( #126, #122, #117, #113 ) ) ;
#132 = EDGE_LOOP ( 'NONE', ( #106, #114, #116, #111 ) ) ;
#133 = EDGE_LOOP ( 'NONE', ( #109, #105, #104, #103 ) ) ;
#134 = EDGE_LOOP ( 'NONE', ( #118, #124, #119, #125 ) ) ;
#135 = LINE ( 'NONE', #136, #12 ) ;
#136 = CARTESIAN_POINT ( 'NONE',  ( 17.50000000000000400, 9.999999999999998200, -500.0000000000000000 ) ) ;
#137 = DIRECTION ( 'NONE',  ( -0.0000000000000000000, 1.000000000000000000, -0.0000000000000000000 ) ) ;
#138 = PLANE ( 'NONE',  #14 ) ;
#139 = LINE ( 'NONE', #140, #46 ) ;
#140 = CARTESIAN_POINT ( 'NONE',  ( -17.50000000000000000, 9.999999999999998200, 500.0000000000000000 ) ) ;
#141 = DIRECTION ( 'NONE',  ( -1.000000000000000000, -0.0000000000000000000, -0.0000000000000000000 ) ) ;
#142 = LINE ( 'NONE', #143, #34 ) ;
#143 = CARTESIAN_POINT ( 'NONE',  ( -17.50000000000000000, 9.999999999999998200, -500.0000000000000000 ) ) ;
#144 = DIRECTION ( 'NONE',  ( -1.000000000000000000, -0.0000000000000000000, -0.0000000000000000000 ) ) ;
#145 = LINE ( 'NONE', #146, #44 ) ;
#146 = CARTESIAN_POINT ( 'NONE',  ( -17.50000000000000000, 9.999999999999998200, -500.0000000000000000 ) ) ;
#147 = DIRECTION ( 'NONE',  ( 3.469446951953614200E-016, -1.000000000000000000, 0.0000000000000000000 ) ) ;
#148 = CARTESIAN_POINT ( 'NONE',  ( 0.0000000000000000000, 0.0000000000000000000, 500.0000000000000000 ) ) ;
#149 = DIRECTION ( 'NONE',  ( -0.0000000000000000000, 0.0000000000000000000, 1.000000000000000000 ) ) ;
#150 = DIRECTION ( 'NONE',  ( 1.000000000000000000, 0.0000000000000000000, 0.0000000000000000000 ) ) ;
#151 = LINE ( 'NONE', #152, #45 ) ;
#152 = CARTESIAN_POINT ( 'NONE',  ( -17.50000000000000000, 9.999999999999998200, 500.0000000000000000 ) ) ;
#153 = DIRECTION ( 'NONE',  ( -0.0000000000000000000, -0.0000000000000000000, -1.000000000000000000 ) ) ;
#154 = PLANE ( 'NONE',  #30 ) ;
#155 = LINE ( 'NONE', #156, #43 ) ;
#156 = CARTESIAN_POINT ( 'NONE',  ( -17.49999999999999600, -10.00000000000000200, 500.0000000000000000 ) ) ;
#157 = DIRECTION ( 'NONE',  ( -0.0000000000000000000, -0.0000000000000000000, -1.000000000000000000 ) ) ;
#158 = LINE ( 'NONE', #159, #33 ) ;
#159 = CARTESIAN_POINT ( 'NONE',  ( -17.49999999999999600, -10.00000000000000200, -500.0000000000000000 ) ) ;
#160 = DIRECTION ( 'NONE',  ( 1.000000000000000000, 0.0000000000000000000, 0.0000000000000000000 ) ) ;
#161 = LINE ( 'NONE', #162, #23 ) ;
#162 = CARTESIAN_POINT ( 'NONE',  ( 17.50000000000000400, 9.999999999999998200, 500.0000000000000000 ) ) ;
#163 = DIRECTION ( 'NONE',  ( -0.0000000000000000000, -0.0000000000000000000, -1.000000000000000000 ) ) ;
#164 = CARTESIAN_POINT ( 'NONE',  ( -17.50000000000000000, 9.999999999999998200, 500.0000000000000000 ) ) ;
#165 = CARTESIAN_POINT ( 'NONE',  ( -17.49999999999999600, -10.00000000000000200, 500.0000000000000000 ) ) ;
#166 = CARTESIAN_POINT ( 'NONE',  ( -17.49999999999999600, -10.00000000000000200, 500.0000000000000000 ) ) ;
#167 = DIRECTION ( 'NONE',  ( 0.0000000000000000000, 1.000000000000000000, 0.0000000000000000000 ) ) ;
#168 = DIRECTION ( 'NONE',  ( 1.000000000000000000, 0.0000000000000000000, 0.0000000000000000000 ) ) ;
#169 = PLANE ( 'NONE',  #39 ) ;
#170 = DIRECTION ( 'NONE',  ( 0.0000000000000000000, -0.0000000000000000000, -1.000000000000000000 ) ) ;
#171 = LINE ( 'NONE', #165, #49 ) ;
#172 = DIRECTION ( 'NONE',  ( 0.0000000000000000000, -1.000000000000000000, 0.0000000000000000000 ) ) ;
#173 = LINE ( 'NONE', #178, #48 ) ;
#174 = CARTESIAN_POINT ( 'NONE',  ( 17.50000000000000400, 9.999999999999998200, 500.0000000000000000 ) ) ;
#175 = PLANE ( 'NONE',  #37 ) ;
#176 = PLANE ( 'NONE',  #19 ) ;
#177 = DIRECTION ( 'NONE',  ( 0.0000000000000000000, -0.0000000000000000000, 1.000000000000000000 ) ) ;
#178 = CARTESIAN_POINT ( 'NONE',  ( 17.50000000000000400, -10.00000000000000200, 500.0000000000000000 ) ) ;
#179 = DIRECTION ( 'NONE',  ( -0.0000000000000000000, -0.0000000000000000000, -1.000000000000000000 ) ) ;
#180 = CARTESIAN_POINT ( 'NONE',  ( 17.50000000000000400, 9.999999999999998200, 500.0000000000000000 ) ) ;
#181 = LINE ( 'NONE', #180, #35 ) ;
#182 = DIRECTION ( 'NONE',  ( 3.469446951953614200E-016, -1.000000000000000000, 0.0000000000000000000 ) ) ;
#183 = APPROVAL_STATUS ( 'not_yet_approved' ) ;
#184 = APPLICATION_PROTOCOL_DEFINITION ( 'international standard', 'config_control_design', 1994, #85 ) ;
#185 = VERTEX_POINT ( 'NONE', #201 ) ;
#186 = PLANE ( 'NONE',  #17 ) ;
#187 = PERSON_AND_ORGANIZATION_ROLE ( 'creator' ) ;
#188 = SECURITY_CLASSIFICATION_LEVEL ( 'unclassified' ) ;
#189 = PERSON_AND_ORGANIZATION ( #3, #42 ) ;
#190 = CARTESIAN_POINT ( 'NONE',  ( -17.49999999999999600, -10.00000000000000200, 500.0000000000000000 ) ) ;
#191 = APPROVAL_DATE_TIME ( #235, #63 ) ;
#192 = CARTESIAN_POINT ( 'NONE',  ( 17.50000000000000400, 9.999999999999998200, 500.0000000000000000 ) ) ;
#193 = PERSON_AND_ORGANIZATION ( #3, #42 ) ;
#194 = PERSON_AND_ORGANIZATION ( #3, #42 ) ;
#195 = SHAPE_DEFINITION_REPRESENTATION ( #89, #1 ) ;
#196 = APPROVAL_STATUS ( 'not_yet_approved' ) ;
#197 = APPROVAL_DATE_TIME ( #224, #75 ) ;
#198 = CARTESIAN_POINT ( 'NONE',  ( 17.50000000000000400, -10.00000000000000200, -500.0000000000000000 ) ) ;
#199 = DIRECTION ( 'NONE',  ( -1.000000000000000000, 0.0000000000000000000, 0.0000000000000000000 ) ) ;
#200 = PERSON_AND_ORGANIZATION ( #3, #42 ) ;
#201 = CARTESIAN_POINT ( 'NONE',  ( -17.50000000000000000, 9.999999999999998200, -500.0000000000000000 ) ) ;
#202 = PERSON_AND_ORGANIZATION ( #3, #42 ) ;
#203 = CARTESIAN_POINT ( 'NONE',  ( -17.50000000000000000, 9.999999999999998200, 500.0000000000000000 ) ) ;
#204 = APPROVAL_DATE_TIME ( #209, #77 ) ;
#205 = PERSON_AND_ORGANIZATION_ROLE ( 'design_owner' ) ;
#206 = CARTESIAN_POINT ( 'NONE',  ( -17.50000000000000000, 9.999999999999998200, 500.0000000000000000 ) ) ;
#207 = CARTESIAN_POINT ( 'NONE',  ( 0.0000000000000000000, 0.0000000000000000000, -500.0000000000000000 ) ) ;
#208 = CARTESIAN_POINT ( 'NONE',  ( 17.50000000000000400, 9.999999999999998200, -500.0000000000000000 ) ) ;
#209 = DATE_AND_TIME ( #40, #84 ) ;
#210 =( LENGTH_UNIT ( ) NAMED_UNIT ( * ) SI_UNIT ( .MILLI., .METRE. ) );
#211 = DIRECTION ( 'NONE',  ( 1.000000000000000000, 3.469446951953614200E-016, -0.0000000000000000000 ) ) ;
#212 = PERSON_AND_ORGANIZATION ( #3, #42 ) ;
#213 = MECHANICAL_CONTEXT ( 'NONE', #86, 'mechanical' ) ;
#214 = DIRECTION ( 'NONE',  ( -0.0000000000000000000, 0.0000000000000000000, 1.000000000000000000 ) ) ;
#215 = APPROVAL_STATUS ( 'not_yet_approved' ) ;
#216 = APPROVAL_ROLE ( '' ) ;
#217 = PERSON_AND_ORGANIZATION ( #3, #42 ) ;
#218 = PERSON_AND_ORGANIZATION_ROLE ( 'design_supplier' ) ;
#219 = DATE_TIME_ROLE ( 'classification_date' ) ;
#220 = APPROVAL_ROLE ( '' ) ;
#221 = CARTESIAN_POINT ( 'NONE',  ( 17.50000000000000400, -10.00000000000000200, 500.0000000000000000 ) ) ;
#222 = DIRECTION ( 'NONE',  ( 1.000000000000000000, 0.0000000000000000000, 0.0000000000000000000 ) ) ;
#223 =( NAMED_UNIT ( * ) SI_UNIT ( $, .STERADIAN. ) SOLID_ANGLE_UNIT ( ) );
#224 = DATE_AND_TIME ( #41, #83 ) ;
#225 = APPLICATION_PROTOCOL_DEFINITION ( 'international standard', 'config_control_design', 1994, #86 ) ;
#226 = DATE_AND_TIME ( #4, #53 ) ;
#227 =( NAMED_UNIT ( * ) PLANE_ANGLE_UNIT ( ) SI_UNIT ( $, .RADIAN. ) );
#228 = DIRECTION ( 'NONE',  ( 0.0000000000000000000, 0.0000000000000000000, 1.000000000000000000 ) ) ;
#229 = DATE_AND_TIME ( #22, #66 ) ;
#230 = PERSON_AND_ORGANIZATION_ROLE ( 'classification_officer' ) ;
#231 = CARTESIAN_POINT ( 'NONE',  ( 0.0000000000000000000, 0.0000000000000000000, 0.0000000000000000000 ) ) ;
#232 = DIRECTION ( 'NONE',  ( 0.0000000000000000000, 0.0000000000000000000, 1.000000000000000000 ) ) ;
#233 = PERSON_AND_ORGANIZATION ( #3, #42 ) ;
#234 = DIRECTION ( 'NONE',  ( 1.000000000000000000, 0.0000000000000000000, 0.0000000000000000000 ) ) ;
#235 = DATE_AND_TIME ( #36, #80 ) ;
#236 = PERSON_AND_ORGANIZATION_ROLE ( 'creator' ) ;
#237 = DATE_TIME_ROLE ( 'creation_date' ) ;
ENDSEC;
END-ISO-10303-21;
