ISO-10303-21;
HEADER;
FILE_DESCRIPTION (( 'STEP AP203' ),
    '1' );
FILE_NAME ('sone3D.STEP',
    '2015-08-11T10:29:34',
    ( '' ),
    ( '' ),
    'SwSTEP 2.0',
    'SolidWorks 2012',
    '' );
FILE_SCHEMA (( 'CONFIG_CONTROL_DESIGN' ));
ENDSEC;

DATA;
#1 = UNCERTAINTY_MEASURE_WITH_UNIT (LENGTH_MEASURE( 1.000000000000000100E-005 ), #192, 'distance_accuracy_value', 'NONE');
#2 = ADVANCED_BREP_SHAPE_REPRESENTATION ( 'sone3D', ( #89, #8 ), #88 ) ;
#3 = PERSON ( 'UNSPECIFIED', 'UNSPECIFIED', 'UNSPECIFIED', ('UNSPECIFIED'), ('UNSPECIFIED'), ('UNSPECIFIED') ) ;
#4 = VECTOR ( 'NONE', #211, 1000.000000000000000 ) ;
#5 = CC_DESIGN_SECURITY_CLASSIFICATION ( #27, ( #12 ) ) ;
#6 = CLOSED_SHELL ( 'NONE', ( #65, #50, #82, #54, #83, #77 ) ) ;
#7 = AXIS2_PLACEMENT_3D ( 'NONE', #155, #156, #157 ) ;
#8 = AXIS2_PLACEMENT_3D ( 'NONE', #186, #101, #100 ) ;
#9 = VECTOR ( 'NONE', #167, 1000.000000000000000 ) ;
#10 = CC_DESIGN_APPROVAL ( #72, ( #12 ) ) ;
#11 = FACE_OUTER_BOUND ( 'NONE', #135, .T. ) ;
#12 = PRODUCT_DEFINITION_FORMATION_WITH_SPECIFIED_SOURCE ( 'ANY', '', #87, .NOT_KNOWN. ) ;
#13 = CC_DESIGN_APPROVAL ( #80, ( #75 ) ) ;
#14 = VECTOR ( 'NONE', #175, 1000.000000000000000 ) ;
#15 = VECTOR ( 'NONE', #147, 1000.000000000000000 ) ;
#16 = AXIS2_PLACEMENT_3D ( 'NONE', #204, #199, #198 ) ;
#17 = FACE_OUTER_BOUND ( 'NONE', #137, .T. ) ;
#18 = CALENDAR_DATE ( 2015, 11, 8 ) ;
#19 = FACE_OUTER_BOUND ( 'NONE', #138, .T. ) ;
#20 = APPROVAL_PERSON_ORGANIZATION ( #116, #80, #232 ) ;
#21 = CALENDAR_DATE ( 2015, 11, 8 ) ;
#22 = CALENDAR_DATE ( 2015, 11, 8 ) ;
#23 = APPROVAL_PERSON_ORGANIZATION ( #94, #72, #190 ) ;
#24 = FACE_OUTER_BOUND ( 'NONE', #139, .T. ) ;
#25 = VECTOR ( 'NONE', #151, 1000.000000000000000 ) ;
#26 = CC_DESIGN_APPROVAL ( #70, ( #27 ) ) ;
#27 = SECURITY_CLASSIFICATION ( '', '', #226 ) ;
#28 = VECTOR ( 'NONE', #180, 1000.000000000000000 ) ;
#29 = VECTOR ( 'NONE', #170, 1000.000000000000000 ) ;
#30 = AXIS2_PLACEMENT_3D ( 'NONE', #184, #212, #215 ) ;
#31 = AXIS2_PLACEMENT_3D ( 'NONE', #172, #173, #181 ) ;
#32 = CALENDAR_DATE ( 2015, 11, 8 ) ;
#33 = VECTOR ( 'NONE', #164, 1000.000000000000000 ) ;
#34 = FACE_OUTER_BOUND ( 'NONE', #140, .T. ) ;
#35 = VECTOR ( 'NONE', #154, 1000.000000000000000 ) ;
#36 = COORDINATED_UNIVERSAL_TIME_OFFSET ( 9, 0, .AHEAD. ) ;
#37 = AXIS2_PLACEMENT_3D ( 'NONE', #210, #208, #209 ) ;
#38 = COORDINATED_UNIVERSAL_TIME_OFFSET ( 9, 0, .AHEAD. ) ;
#39 = AXIS2_PLACEMENT_3D ( 'NONE', #142, #143, #144 ) ;
#40 = COORDINATED_UNIVERSAL_TIME_OFFSET ( 9, 0, .AHEAD. ) ;
#41 = ORGANIZATION ( 'UNSPECIFIED', 'UNSPECIFIED', '' ) ;
#42 = APPROVAL_PERSON_ORGANIZATION ( #233, #70, #227 ) ;
#43 = COORDINATED_UNIVERSAL_TIME_OFFSET ( 9, 0, .AHEAD. ) ;
#44 = VECTOR ( 'NONE', #160, 1000.000000000000000 ) ;
#45 = VECTOR ( 'NONE', #177, 1000.000000000000000 ) ;
#46 = COORDINATED_UNIVERSAL_TIME_OFFSET ( 9, 0, .AHEAD. ) ;
#47 = FACE_OUTER_BOUND ( 'NONE', #136, .T. ) ;
#48 = CALENDAR_DATE ( 2015, 11, 8 ) ;
#49 = VECTOR ( 'NONE', #183, 1000.000000000000000 ) ;
#50 = ADVANCED_FACE ( 'NONE', ( #47 ), #141, .F. ) ;
#51 = EDGE_CURVE ( 'NONE', #95, #104, #145, .T. ) ;
#52 = EDGE_CURVE ( 'NONE', #98, #102, #149, .T. ) ;
#53 = EDGE_CURVE ( 'NONE', #97, #104, #152, .T. ) ;
#54 = ADVANCED_FACE ( 'NONE', ( #11 ), #148, .F. ) ;
#55 = LOCAL_TIME ( 19, 29, 34.00000000000000000, #46 ) ;
#56 = EDGE_CURVE ( 'NONE', #92, #216, #158, .T. ) ;
#57 = CC_DESIGN_PERSON_AND_ORGANIZATION_ASSIGNMENT ( #99, #219, ( #87 ) ) ;
#58 = LOCAL_TIME ( 19, 29, 34.00000000000000000, #38 ) ;
#59 = EDGE_CURVE ( 'NONE', #102, #95, #162, .T. ) ;
#60 = LOCAL_TIME ( 19, 29, 34.00000000000000000, #40 ) ;
#61 = EDGE_CURVE ( 'NONE', #95, #92, #165, .T. ) ;
#62 = EDGE_CURVE ( 'NONE', #96, #97, #168, .T. ) ;
#63 = EDGE_CURVE ( 'NONE', #216, #96, #178, .T. ) ;
#64 = EDGE_CURVE ( 'NONE', #102, #97, #171, .T. ) ;
#65 = ADVANCED_FACE ( 'NONE', ( #24 ), #161, .F. ) ;
#66 = EDGE_CURVE ( 'NONE', #92, #98, #179, .T. ) ;
#67 = EDGE_CURVE ( 'NONE', #104, #216, #235, .T. ) ;
#68 = CC_DESIGN_DATE_AND_TIME_ASSIGNMENT ( #220, #234, ( #27 ) ) ;
#69 = PRODUCT_RELATED_PRODUCT_CATEGORY ( 'detail', '', ( #87 ) ) ;
#70 = APPROVAL ( #228, 'UNSPECIFIED' ) ;
#71 = CC_DESIGN_PERSON_AND_ORGANIZATION_ASSIGNMENT ( #224, #223, ( #12 ) ) ;
#72 = APPROVAL ( #189, 'UNSPECIFIED' ) ;
#73 = LOCAL_TIME ( 19, 29, 34.00000000000000000, #36 ) ;
#74 = CC_DESIGN_DATE_AND_TIME_ASSIGNMENT ( #236, #93, ( #75 ) ) ;
#75 = PRODUCT_DEFINITION ( 'UNKNOWN', '', #12, #90 ) ;
#76 = LOCAL_TIME ( 19, 29, 34.00000000000000000, #43 ) ;
#77 = ADVANCED_FACE ( 'NONE', ( #34 ), #218, .F. ) ;
#78 = EDGE_CURVE ( 'NONE', #98, #96, #214, .T. ) ;
#79 = CC_DESIGN_PERSON_AND_ORGANIZATION_ASSIGNMENT ( #127, #222, ( #12 ) ) ;
#80 = APPROVAL ( #114, 'UNSPECIFIED' ) ;
#81 = CC_DESIGN_PERSON_AND_ORGANIZATION_ASSIGNMENT ( #108, #237, ( #75 ) ) ;
#82 = ADVANCED_FACE ( 'NONE', ( #19 ), #200, .F. ) ;
#83 = ADVANCED_FACE ( 'NONE', ( #17 ), #205, .T. ) ;
#84 = CC_DESIGN_PERSON_AND_ORGANIZATION_ASSIGNMENT ( #225, #221, ( #27 ) ) ;
#85 = APPLICATION_CONTEXT ( 'configuration controlled 3d designs of mechanical parts and assemblies' ) ;
#86 = APPLICATION_CONTEXT ( 'configuration controlled 3d designs of mechanical parts and assemblies' ) ;
#87 = PRODUCT ( 'sone3D', 'sone3D', '', ( #103 ) ) ;
#88 =( GEOMETRIC_REPRESENTATION_CONTEXT ( 3 ) GLOBAL_UNCERTAINTY_ASSIGNED_CONTEXT ( ( #1 ) ) GLOBAL_UNIT_ASSIGNED_CONTEXT ( ( #192, #191, #193 ) ) REPRESENTATION_CONTEXT ( 'NONE', 'WORKASPACE' ) );
#89 = MANIFOLD_SOLID_BREP ( 'ÎÞ½ - µoµ1', #6 ) ;
#90 = DESIGN_CONTEXT ( 'detailed design', #86, 'design' ) ;
#91 = PRODUCT_DEFINITION_SHAPE ( 'NONE', 'NONE',  #75 ) ;
#92 = VERTEX_POINT ( 'NONE', #201 ) ;
#93 = DATE_TIME_ROLE ( 'creation_date' ) ;
#94 = PERSON_AND_ORGANIZATION ( #3, #41 ) ;
#95 = VERTEX_POINT ( 'NONE', #206 ) ;
#96 = VERTEX_POINT ( 'NONE', #207 ) ;
#97 = VERTEX_POINT ( 'NONE', #202 ) ;
#98 = VERTEX_POINT ( 'NONE', #203 ) ;
#99 = PERSON_AND_ORGANIZATION ( #3, #41 ) ;
#100 = DIRECTION ( 'NONE',  ( 1.000000000000000000, 0.0000000000000000000, 0.0000000000000000000 ) ) ;
#101 = DIRECTION ( 'NONE',  ( 0.0000000000000000000, 0.0000000000000000000, 1.000000000000000000 ) ) ;
#102 = VERTEX_POINT ( 'NONE', #194 ) ;
#103 = MECHANICAL_CONTEXT ( 'NONE', #85, 'mechanical' ) ;
#104 = VERTEX_POINT ( 'NONE', #195 ) ;
#105 = ORIENTED_EDGE ( 'NONE', *, *, #53, .T. ) ;
#106 = ORIENTED_EDGE ( 'NONE', *, *, #78, .T. ) ;
#107 = ORIENTED_EDGE ( 'NONE', *, *, #52, .F. ) ;
#108 = PERSON_AND_ORGANIZATION ( #3, #41 ) ;
#109 = ORIENTED_EDGE ( 'NONE', *, *, #64, .F. ) ;
#110 = ORIENTED_EDGE ( 'NONE', *, *, #62, .T. ) ;
#111 = ORIENTED_EDGE ( 'NONE', *, *, #56, .T. ) ;
#112 = APPROVAL_DATE_TIME ( #231, #80 ) ;
#113 = ORIENTED_EDGE ( 'NONE', *, *, #78, .F. ) ;
#114 = APPROVAL_STATUS ( 'not_yet_approved' ) ;
#115 = ORIENTED_EDGE ( 'NONE', *, *, #66, .F. ) ;
#116 = PERSON_AND_ORGANIZATION ( #3, #41 ) ;
#117 = ORIENTED_EDGE ( 'NONE', *, *, #66, .T. ) ;
#118 = ORIENTED_EDGE ( 'NONE', *, *, #63, .T. ) ;
#119 = ORIENTED_EDGE ( 'NONE', *, *, #67, .T. ) ;
#120 = ORIENTED_EDGE ( 'NONE', *, *, #67, .F. ) ;
#121 = ORIENTED_EDGE ( 'NONE', *, *, #53, .F. ) ;
#122 = ORIENTED_EDGE ( 'NONE', *, *, #59, .F. ) ;
#123 = ORIENTED_EDGE ( 'NONE', *, *, #62, .F. ) ;
#124 = ORIENTED_EDGE ( 'NONE', *, *, #56, .F. ) ;
#125 = ORIENTED_EDGE ( 'NONE', *, *, #61, .F. ) ;
#126 = ORIENTED_EDGE ( 'NONE', *, *, #51, .T. ) ;
#127 = PERSON_AND_ORGANIZATION ( #3, #41 ) ;
#128 = ORIENTED_EDGE ( 'NONE', *, *, #52, .T. ) ;
#129 = ORIENTED_EDGE ( 'NONE', *, *, #63, .F. ) ;
#130 = SHAPE_DEFINITION_REPRESENTATION ( #91, #2 ) ;
#131 = ORIENTED_EDGE ( 'NONE', *, *, #59, .T. ) ;
#132 = ORIENTED_EDGE ( 'NONE', *, *, #51, .F. ) ;
#133 = ORIENTED_EDGE ( 'NONE', *, *, #64, .T. ) ;
#134 = ORIENTED_EDGE ( 'NONE', *, *, #61, .T. ) ;
#135 = EDGE_LOOP ( 'NONE', ( #105, #132, #122, #133 ) ) ;
#136 = EDGE_LOOP ( 'NONE', ( #118, #113, #115, #111 ) ) ;
#137 = EDGE_LOOP ( 'NONE', ( #134, #117, #128, #131 ) ) ;
#138 = EDGE_LOOP ( 'NONE', ( #110, #109, #107, #106 ) ) ;
#139 = EDGE_LOOP ( 'NONE', ( #119, #124, #125, #126 ) ) ;
#140 = EDGE_LOOP ( 'NONE', ( #120, #121, #123, #129 ) ) ;
#141 = PLANE ( 'NONE',  #39 ) ;
#142 = CARTESIAN_POINT ( 'NONE',  ( -15.00000000000000000, -10.00000000000000500, 500.0000000000000000 ) ) ;
#143 = DIRECTION ( 'NONE',  ( 0.0000000000000000000, 1.000000000000000000, 0.0000000000000000000 ) ) ;
#144 = DIRECTION ( 'NONE',  ( 0.0000000000000000000, -0.0000000000000000000, 1.000000000000000000 ) ) ;
#145 = LINE ( 'NONE', #146, #15 ) ;
#146 = CARTESIAN_POINT ( 'NONE',  ( -15.00000000000000200, 9.999999999999994700, 500.0000000000000000 ) ) ;
#147 = DIRECTION ( 'NONE',  ( -0.0000000000000000000, -0.0000000000000000000, -1.000000000000000000 ) ) ;
#148 = PLANE ( 'NONE',  #7 ) ;
#149 = LINE ( 'NONE', #150, #25 ) ;
#150 = CARTESIAN_POINT ( 'NONE',  ( 14.99999999999999600, 9.999999999999994700, 500.0000000000000000 ) ) ;
#151 = DIRECTION ( 'NONE',  ( -0.0000000000000000000, 1.000000000000000000, -0.0000000000000000000 ) ) ;
#152 = LINE ( 'NONE', #153, #35 ) ;
#153 = CARTESIAN_POINT ( 'NONE',  ( -15.00000000000000200, 9.999999999999994700, -500.0000000000000000 ) ) ;
#154 = DIRECTION ( 'NONE',  ( -1.000000000000000000, -0.0000000000000000000, -0.0000000000000000000 ) ) ;
#155 = CARTESIAN_POINT ( 'NONE',  ( -15.00000000000000200, 9.999999999999994700, 500.0000000000000000 ) ) ;
#156 = DIRECTION ( 'NONE',  ( 0.0000000000000000000, -1.000000000000000000, 0.0000000000000000000 ) ) ;
#157 = DIRECTION ( 'NONE',  ( 0.0000000000000000000, -0.0000000000000000000, -1.000000000000000000 ) ) ;
#158 = LINE ( 'NONE', #159, #44 ) ;
#159 = CARTESIAN_POINT ( 'NONE',  ( -15.00000000000000000, -10.00000000000000500, 500.0000000000000000 ) ) ;
#160 = DIRECTION ( 'NONE',  ( -0.0000000000000000000, -0.0000000000000000000, -1.000000000000000000 ) ) ;
#161 = PLANE ( 'NONE',  #31 ) ;
#162 = LINE ( 'NONE', #163, #33 ) ;
#163 = CARTESIAN_POINT ( 'NONE',  ( -15.00000000000000200, 9.999999999999994700, 500.0000000000000000 ) ) ;
#164 = DIRECTION ( 'NONE',  ( -1.000000000000000000, -0.0000000000000000000, -0.0000000000000000000 ) ) ;
#165 = LINE ( 'NONE', #166, #9 ) ;
#166 = CARTESIAN_POINT ( 'NONE',  ( -15.00000000000000200, 9.999999999999994700, 500.0000000000000000 ) ) ;
#167 = DIRECTION ( 'NONE',  ( 8.673617379884035500E-017, -1.000000000000000000, 0.0000000000000000000 ) ) ;
#168 = LINE ( 'NONE', #169, #29 ) ;
#169 = CARTESIAN_POINT ( 'NONE',  ( 14.99999999999999600, 9.999999999999994700, -500.0000000000000000 ) ) ;
#170 = DIRECTION ( 'NONE',  ( -0.0000000000000000000, 1.000000000000000000, -0.0000000000000000000 ) ) ;
#171 = LINE ( 'NONE', #174, #14 ) ;
#172 = CARTESIAN_POINT ( 'NONE',  ( -15.00000000000000200, 9.999999999999994700, 500.0000000000000000 ) ) ;
#173 = DIRECTION ( 'NONE',  ( 1.000000000000000000, 8.673617379884035500E-017, -0.0000000000000000000 ) ) ;
#174 = CARTESIAN_POINT ( 'NONE',  ( 14.99999999999999600, 9.999999999999994700, 500.0000000000000000 ) ) ;
#175 = DIRECTION ( 'NONE',  ( -0.0000000000000000000, -0.0000000000000000000, -1.000000000000000000 ) ) ;
#176 = CARTESIAN_POINT ( 'NONE',  ( -15.00000000000000000, -10.00000000000000500, -500.0000000000000000 ) ) ;
#177 = DIRECTION ( 'NONE',  ( 1.000000000000000000, 0.0000000000000000000, 0.0000000000000000000 ) ) ;
#178 = LINE ( 'NONE', #176, #45 ) ;
#179 = LINE ( 'NONE', #182, #49 ) ;
#180 = DIRECTION ( 'NONE',  ( 8.673617379884035500E-017, -1.000000000000000000, 0.0000000000000000000 ) ) ;
#181 = DIRECTION ( 'NONE',  ( -8.673617379884035500E-017, 1.000000000000000000, 0.0000000000000000000 ) ) ;
#182 = CARTESIAN_POINT ( 'NONE',  ( -15.00000000000000000, -10.00000000000000500, 500.0000000000000000 ) ) ;
#183 = DIRECTION ( 'NONE',  ( 1.000000000000000000, 0.0000000000000000000, 0.0000000000000000000 ) ) ;
#184 = CARTESIAN_POINT ( 'NONE',  ( 0.0000000000000000000, 0.0000000000000000000, -500.0000000000000000 ) ) ;
#185 = CARTESIAN_POINT ( 'NONE',  ( -15.00000000000000200, 9.999999999999994700, -500.0000000000000000 ) ) ;
#186 = CARTESIAN_POINT ( 'NONE',  ( 0.0000000000000000000, 0.0000000000000000000, 0.0000000000000000000 ) ) ;
#187 = APPROVAL_DATE_TIME ( #188, #72 ) ;
#188 = DATE_AND_TIME ( #22, #60 ) ;
#189 = APPROVAL_STATUS ( 'not_yet_approved' ) ;
#190 = APPROVAL_ROLE ( '' ) ;
#191 =( NAMED_UNIT ( * ) PLANE_ANGLE_UNIT ( ) SI_UNIT ( $, .RADIAN. ) );
#192 =( LENGTH_UNIT ( ) NAMED_UNIT ( * ) SI_UNIT ( .MILLI., .METRE. ) );
#193 =( NAMED_UNIT ( * ) SI_UNIT ( $, .STERADIAN. ) SOLID_ANGLE_UNIT ( ) );
#194 = CARTESIAN_POINT ( 'NONE',  ( 14.99999999999999600, 9.999999999999994700, 500.0000000000000000 ) ) ;
#195 = CARTESIAN_POINT ( 'NONE',  ( -15.00000000000000200, 9.999999999999994700, -500.0000000000000000 ) ) ;
#196 = CARTESIAN_POINT ( 'NONE',  ( -15.00000000000000000, -10.00000000000000500, -500.0000000000000000 ) ) ;
#197 = APPLICATION_PROTOCOL_DEFINITION ( 'international standard', 'config_control_design', 1994, #85 ) ;
#198 = DIRECTION ( 'NONE',  ( 1.000000000000000000, 0.0000000000000000000, 0.0000000000000000000 ) ) ;
#199 = DIRECTION ( 'NONE',  ( -0.0000000000000000000, 0.0000000000000000000, 1.000000000000000000 ) ) ;
#200 = PLANE ( 'NONE',  #37 ) ;
#201 = CARTESIAN_POINT ( 'NONE',  ( -15.00000000000000000, -10.00000000000000500, 500.0000000000000000 ) ) ;
#202 = CARTESIAN_POINT ( 'NONE',  ( 14.99999999999999600, 9.999999999999994700, -500.0000000000000000 ) ) ;
#203 = CARTESIAN_POINT ( 'NONE',  ( 14.99999999999999600, -10.00000000000000500, 500.0000000000000000 ) ) ;
#204 = CARTESIAN_POINT ( 'NONE',  ( 0.0000000000000000000, 0.0000000000000000000, 500.0000000000000000 ) ) ;
#205 = PLANE ( 'NONE',  #16 ) ;
#206 = CARTESIAN_POINT ( 'NONE',  ( -15.00000000000000200, 9.999999999999994700, 500.0000000000000000 ) ) ;
#207 = CARTESIAN_POINT ( 'NONE',  ( 14.99999999999999600, -10.00000000000000500, -500.0000000000000000 ) ) ;
#208 = DIRECTION ( 'NONE',  ( -1.000000000000000000, 0.0000000000000000000, 0.0000000000000000000 ) ) ;
#209 = DIRECTION ( 'NONE',  ( 0.0000000000000000000, 0.0000000000000000000, 1.000000000000000000 ) ) ;
#210 = CARTESIAN_POINT ( 'NONE',  ( 14.99999999999999600, 9.999999999999994700, 500.0000000000000000 ) ) ;
#211 = DIRECTION ( 'NONE',  ( -0.0000000000000000000, -0.0000000000000000000, -1.000000000000000000 ) ) ;
#212 = DIRECTION ( 'NONE',  ( -0.0000000000000000000, 0.0000000000000000000, 1.000000000000000000 ) ) ;
#213 = CARTESIAN_POINT ( 'NONE',  ( 14.99999999999999600, -10.00000000000000500, 500.0000000000000000 ) ) ;
#214 = LINE ( 'NONE', #213, #4 ) ;
#215 = DIRECTION ( 'NONE',  ( 1.000000000000000000, 0.0000000000000000000, 0.0000000000000000000 ) ) ;
#216 = VERTEX_POINT ( 'NONE', #196 ) ;
#217 = APPLICATION_PROTOCOL_DEFINITION ( 'international standard', 'config_control_design', 1994, #86 ) ;
#218 = PLANE ( 'NONE',  #30 ) ;
#219 = PERSON_AND_ORGANIZATION_ROLE ( 'design_owner' ) ;
#220 = DATE_AND_TIME ( #21, #76 ) ;
#221 = PERSON_AND_ORGANIZATION_ROLE ( 'classification_officer' ) ;
#222 = PERSON_AND_ORGANIZATION_ROLE ( 'creator' ) ;
#223 = PERSON_AND_ORGANIZATION_ROLE ( 'design_supplier' ) ;
#224 = PERSON_AND_ORGANIZATION ( #3, #41 ) ;
#225 = PERSON_AND_ORGANIZATION ( #3, #41 ) ;
#226 = SECURITY_CLASSIFICATION_LEVEL ( 'unclassified' ) ;
#227 = APPROVAL_ROLE ( '' ) ;
#228 = APPROVAL_STATUS ( 'not_yet_approved' ) ;
#229 = APPROVAL_DATE_TIME ( #230, #70 ) ;
#230 = DATE_AND_TIME ( #18, #73 ) ;
#231 = DATE_AND_TIME ( #32, #58 ) ;
#232 = APPROVAL_ROLE ( '' ) ;
#233 = PERSON_AND_ORGANIZATION ( #3, #41 ) ;
#234 = DATE_TIME_ROLE ( 'classification_date' ) ;
#235 = LINE ( 'NONE', #185, #28 ) ;
#236 = DATE_AND_TIME ( #48, #55 ) ;
#237 = PERSON_AND_ORGANIZATION_ROLE ( 'creator' ) ;
ENDSEC;
END-ISO-10303-21;
