ISO-10303-21;
HEADER;
FILE_DESCRIPTION (( 'STEP AP203' ),
    '1' );
FILE_NAME ('sone3D.STEP',
    '2015-08-11T10:29:14',
    ( '' ),
    ( '' ),
    'SwSTEP 2.0',
    'SolidWorks 2012',
    '' );
FILE_SCHEMA (( 'CONFIG_CONTROL_DESIGN' ));
ENDSEC;

DATA;
#1 = PERSON ( 'UNSPECIFIED', 'UNSPECIFIED', 'UNSPECIFIED', ('UNSPECIFIED'), ('UNSPECIFIED'), ('UNSPECIFIED') ) ;
#2 = ADVANCED_BREP_SHAPE_REPRESENTATION ( 'sone3D', ( #90, #24 ), #88 ) ;
#3 = UNCERTAINTY_MEASURE_WITH_UNIT (LENGTH_MEASURE( 1.000000000000000100E-005 ), #207, 'distance_accuracy_value', 'NONE');
#4 = FACE_OUTER_BOUND ( 'NONE', #142, .T. ) ;
#5 = VECTOR ( 'NONE', #158, 1000.000000000000000 ) ;
#6 = APPROVAL_PERSON_ORGANIZATION ( #199, #81, #106 ) ;
#7 = CC_DESIGN_APPROVAL ( #77, ( #16 ) ) ;
#8 = VECTOR ( 'NONE', #226, 1000.000000000000000 ) ;
#9 = CALENDAR_DATE ( 2015, 11, 8 ) ;
#10 = FACE_OUTER_BOUND ( 'NONE', #138, .T. ) ;
#11 = CC_DESIGN_SECURITY_CLASSIFICATION ( #16, ( #34 ) ) ;
#12 = VECTOR ( 'NONE', #145, 1000.000000000000000 ) ;
#13 = FACE_OUTER_BOUND ( 'NONE', #139, .T. ) ;
#14 = VECTOR ( 'NONE', #230, 1000.000000000000000 ) ;
#15 = CALENDAR_DATE ( 2015, 11, 8 ) ;
#16 = SECURITY_CLASSIFICATION ( '', '', #234 ) ;
#17 = AXIS2_PLACEMENT_3D ( 'NONE', #163, #164, #165 ) ;
#18 = FACE_OUTER_BOUND ( 'NONE', #137, .T. ) ;
#19 = VECTOR ( 'NONE', #174, 1000.000000000000000 ) ;
#20 = VECTOR ( 'NONE', #162, 1000.000000000000000 ) ;
#21 = COORDINATED_UNIVERSAL_TIME_OFFSET ( 9, 0, .AHEAD. ) ;
#22 = CC_DESIGN_APPROVAL ( #81, ( #34 ) ) ;
#23 = VECTOR ( 'NONE', #152, 1000.000000000000000 ) ;
#24 = AXIS2_PLACEMENT_3D ( 'NONE', #189, #191, #192 ) ;
#25 = COORDINATED_UNIVERSAL_TIME_OFFSET ( 9, 0, .AHEAD. ) ;
#26 = FACE_OUTER_BOUND ( 'NONE', #140, .T. ) ;
#27 = AXIS2_PLACEMENT_3D ( 'NONE', #184, #181, #185 ) ;
#28 = COORDINATED_UNIVERSAL_TIME_OFFSET ( 9, 0, .AHEAD. ) ;
#29 = APPROVAL_PERSON_ORGANIZATION ( #203, #77, #204 ) ;
#30 = CALENDAR_DATE ( 2015, 11, 8 ) ;
#31 = APPROVAL_PERSON_ORGANIZATION ( #109, #83, #99 ) ;
#32 = VECTOR ( 'NONE', #216, 1000.000000000000000 ) ;
#33 = AXIS2_PLACEMENT_3D ( 'NONE', #167, #168, #169 ) ;
#34 = PRODUCT_DEFINITION_FORMATION_WITH_SPECIFIED_SOURCE ( 'ANY', '', #87, .NOT_KNOWN. ) ;
#35 = VECTOR ( 'NONE', #229, 1000.000000000000000 ) ;
#36 = AXIS2_PLACEMENT_3D ( 'NONE', #153, #154, #155 ) ;
#37 = CLOSED_SHELL ( 'NONE', ( #61, #66, #75, #64, #56, #60 ) ) ;
#38 = AXIS2_PLACEMENT_3D ( 'NONE', #178, #179, #173 ) ;
#39 = CALENDAR_DATE ( 2015, 11, 8 ) ;
#40 = AXIS2_PLACEMENT_3D ( 'NONE', #227, #220, #221 ) ;
#41 = VECTOR ( 'NONE', #149, 1000.000000000000000 ) ;
#42 = FACE_OUTER_BOUND ( 'NONE', #141, .T. ) ;
#43 = CC_DESIGN_APPROVAL ( #83, ( #73 ) ) ;
#44 = ORGANIZATION ( 'UNSPECIFIED', 'UNSPECIFIED', '' ) ;
#45 = VECTOR ( 'NONE', #172, 1000.000000000000000 ) ;
#46 = COORDINATED_UNIVERSAL_TIME_OFFSET ( 9, 0, .AHEAD. ) ;
#47 = COORDINATED_UNIVERSAL_TIME_OFFSET ( 9, 0, .AHEAD. ) ;
#48 = CALENDAR_DATE ( 2015, 11, 8 ) ;
#49 = VECTOR ( 'NONE', #182, 1000.000000000000000 ) ;
#50 = CC_DESIGN_PERSON_AND_ORGANIZATION_ASSIGNMENT ( #235, #236, ( #16 ) ) ;
#51 = LOCAL_TIME ( 19, 29, 14.00000000000000000, #21 ) ;
#52 = EDGE_CURVE ( 'NONE', #107, #105, #143, .T. ) ;
#53 = EDGE_CURVE ( 'NONE', #94, #96, #147, .T. ) ;
#54 = EDGE_CURVE ( 'NONE', #93, #105, #150, .T. ) ;
#55 = CC_DESIGN_PERSON_AND_ORGANIZATION_ASSIGNMENT ( #115, #95, ( #73 ) ) ;
#56 = ADVANCED_FACE ( 'NONE', ( #42 ), #146, .T. ) ;
#57 = EDGE_CURVE ( 'NONE', #105, #111, #156, .T. ) ;
#58 = LOCAL_TIME ( 19, 29, 14.00000000000000000, #28 ) ;
#59 = EDGE_CURVE ( 'NONE', #110, #111, #160, .T. ) ;
#60 = ADVANCED_FACE ( 'NONE', ( #4 ), #159, .F. ) ;
#61 = ADVANCED_FACE ( 'NONE', ( #18 ), #166, .F. ) ;
#62 = CC_DESIGN_DATE_AND_TIME_ASSIGNMENT ( #209, #193, ( #16 ) ) ;
#63 = EDGE_CURVE ( 'NONE', #96, #107, #170, .T. ) ;
#64 = ADVANCED_FACE ( 'NONE', ( #26 ), #180, .F. ) ;
#65 = EDGE_CURVE ( 'NONE', #111, #98, #176, .T. ) ;
#66 = ADVANCED_FACE ( 'NONE', ( #10 ), #175, .F. ) ;
#67 = EDGE_CURVE ( 'NONE', #107, #110, #186, .T. ) ;
#68 = EDGE_CURVE ( 'NONE', #96, #93, #183, .T. ) ;
#69 = CC_DESIGN_PERSON_AND_ORGANIZATION_ASSIGNMENT ( #100, #103, ( #87 ) ) ;
#70 = PRODUCT_RELATED_PRODUCT_CATEGORY ( 'detail', '', ( #87 ) ) ;
#71 = EDGE_CURVE ( 'NONE', #94, #98, #228, .T. ) ;
#72 = EDGE_CURVE ( 'NONE', #110, #94, #224, .T. ) ;
#73 = PRODUCT_DEFINITION ( 'UNKNOWN', '', #34, #91 ) ;
#74 = LOCAL_TIME ( 19, 29, 14.00000000000000000, #47 ) ;
#75 = ADVANCED_FACE ( 'NONE', ( #13 ), #187, .F. ) ;
#76 = CC_DESIGN_DATE_AND_TIME_ASSIGNMENT ( #92, #198, ( #73 ) ) ;
#77 = APPROVAL ( #205, 'UNSPECIFIED' ) ;
#78 = LOCAL_TIME ( 19, 29, 14.00000000000000000, #46 ) ;
#79 = LOCAL_TIME ( 19, 29, 14.00000000000000000, #25 ) ;
#80 = EDGE_CURVE ( 'NONE', #98, #93, #222, .T. ) ;
#81 = APPROVAL ( #108, 'UNSPECIFIED' ) ;
#82 = CC_DESIGN_PERSON_AND_ORGANIZATION_ASSIGNMENT ( #232, #233, ( #34 ) ) ;
#83 = APPROVAL ( #101, 'UNSPECIFIED' ) ;
#84 = CC_DESIGN_PERSON_AND_ORGANIZATION_ASSIGNMENT ( #196, #197, ( #34 ) ) ;
#85 = APPLICATION_CONTEXT ( 'configuration controlled 3d designs of mechanical parts and assemblies' ) ;
#86 = APPLICATION_CONTEXT ( 'configuration controlled 3d designs of mechanical parts and assemblies' ) ;
#87 = PRODUCT ( 'sone3D', 'sone3D', '', ( #188 ) ) ;
#88 =( GEOMETRIC_REPRESENTATION_CONTEXT ( 3 ) GLOBAL_UNCERTAINTY_ASSIGNED_CONTEXT ( ( #3 ) ) GLOBAL_UNIT_ASSIGNED_CONTEXT ( ( #207, #200, #201 ) ) REPRESENTATION_CONTEXT ( 'NONE', 'WORKASPACE' ) );
#89 = PRODUCT_DEFINITION_SHAPE ( 'NONE', 'NONE',  #73 ) ;
#90 = MANIFOLD_SOLID_BREP ( 'ÎÞ½ - µoµ1', #37 ) ;
#91 = DESIGN_CONTEXT ( 'detailed design', #86, 'design' ) ;
#92 = DATE_AND_TIME ( #39, #78 ) ;
#93 = VERTEX_POINT ( 'NONE', #214 ) ;
#94 = VERTEX_POINT ( 'NONE', #219 ) ;
#95 = PERSON_AND_ORGANIZATION_ROLE ( 'creator' ) ;
#96 = VERTEX_POINT ( 'NONE', #208 ) ;
#97 = DATE_AND_TIME ( #15, #74 ) ;
#98 = VERTEX_POINT ( 'NONE', #217 ) ;
#99 = APPROVAL_ROLE ( '' ) ;
#100 = PERSON_AND_ORGANIZATION ( #1, #44 ) ;
#101 = APPROVAL_STATUS ( 'not_yet_approved' ) ;
#102 = APPLICATION_PROTOCOL_DEFINITION ( 'international standard', 'config_control_design', 1994, #86 ) ;
#103 = PERSON_AND_ORGANIZATION_ROLE ( 'design_owner' ) ;
#104 = APPROVAL_DATE_TIME ( #97, #83 ) ;
#105 = VERTEX_POINT ( 'NONE', #218 ) ;
#106 = APPROVAL_ROLE ( '' ) ;
#107 = VERTEX_POINT ( 'NONE', #215 ) ;
#108 = APPROVAL_STATUS ( 'not_yet_approved' ) ;
#109 = PERSON_AND_ORGANIZATION ( #1, #44 ) ;
#110 = VERTEX_POINT ( 'NONE', #213 ) ;
#111 = VERTEX_POINT ( 'NONE', #202 ) ;
#112 = ORIENTED_EDGE ( 'NONE', *, *, #71, .T. ) ;
#113 = ORIENTED_EDGE ( 'NONE', *, *, #53, .F. ) ;
#114 = ORIENTED_EDGE ( 'NONE', *, *, #68, .F. ) ;
#115 = PERSON_AND_ORGANIZATION ( #1, #44 ) ;
#116 = ORIENTED_EDGE ( 'NONE', *, *, #65, .T. ) ;
#117 = ORIENTED_EDGE ( 'NONE', *, *, #80, .T. ) ;
#118 = ORIENTED_EDGE ( 'NONE', *, *, #59, .T. ) ;
#119 = ORIENTED_EDGE ( 'NONE', *, *, #71, .F. ) ;
#120 = ORIENTED_EDGE ( 'NONE', *, *, #72, .F. ) ;
#121 = ORIENTED_EDGE ( 'NONE', *, *, #52, .F. ) ;
#122 = ORIENTED_EDGE ( 'NONE', *, *, #72, .T. ) ;
#123 = ORIENTED_EDGE ( 'NONE', *, *, #63, .F. ) ;
#124 = ORIENTED_EDGE ( 'NONE', *, *, #67, .T. ) ;
#125 = ORIENTED_EDGE ( 'NONE', *, *, #57, .T. ) ;
#126 = ORIENTED_EDGE ( 'NONE', *, *, #54, .T. ) ;
#127 = ORIENTED_EDGE ( 'NONE', *, *, #80, .F. ) ;
#128 = ORIENTED_EDGE ( 'NONE', *, *, #65, .F. ) ;
#129 = ORIENTED_EDGE ( 'NONE', *, *, #57, .F. ) ;
#130 = ORIENTED_EDGE ( 'NONE', *, *, #68, .T. ) ;
#131 = ORIENTED_EDGE ( 'NONE', *, *, #53, .T. ) ;
#132 = ORIENTED_EDGE ( 'NONE', *, *, #67, .F. ) ;
#133 = ORIENTED_EDGE ( 'NONE', *, *, #59, .F. ) ;
#134 = ORIENTED_EDGE ( 'NONE', *, *, #63, .T. ) ;
#135 = ORIENTED_EDGE ( 'NONE', *, *, #52, .T. ) ;
#136 = ORIENTED_EDGE ( 'NONE', *, *, #54, .F. ) ;
#137 = EDGE_LOOP ( 'NONE', ( #125, #133, #132, #135 ) ) ;
#138 = EDGE_LOOP ( 'NONE', ( #116, #119, #120, #118 ) ) ;
#139 = EDGE_LOOP ( 'NONE', ( #117, #114, #113, #112 ) ) ;
#140 = EDGE_LOOP ( 'NONE', ( #126, #121, #123, #130 ) ) ;
#141 = EDGE_LOOP ( 'NONE', ( #124, #122, #131, #134 ) ) ;
#142 = EDGE_LOOP ( 'NONE', ( #129, #136, #127, #128 ) ) ;
#143 = LINE ( 'NONE', #144, #12 ) ;
#144 = CARTESIAN_POINT ( 'NONE',  ( -12.50000000000000200, 10.00000000000000000, 500.0000000000000000 ) ) ;
#145 = DIRECTION ( 'NONE',  ( -0.0000000000000000000, -0.0000000000000000000, -1.000000000000000000 ) ) ;
#146 = PLANE ( 'NONE',  #36 ) ;
#147 = LINE ( 'NONE', #148, #41 ) ;
#148 = CARTESIAN_POINT ( 'NONE',  ( 12.49999999999999800, 10.00000000000000000, 500.0000000000000000 ) ) ;
#149 = DIRECTION ( 'NONE',  ( -8.673617379884035500E-017, 1.000000000000000000, -0.0000000000000000000 ) ) ;
#150 = LINE ( 'NONE', #151, #23 ) ;
#151 = CARTESIAN_POINT ( 'NONE',  ( -12.50000000000000200, 10.00000000000000000, -500.0000000000000000 ) ) ;
#152 = DIRECTION ( 'NONE',  ( -1.000000000000000000, -0.0000000000000000000, -0.0000000000000000000 ) ) ;
#153 = CARTESIAN_POINT ( 'NONE',  ( 0.0000000000000000000, 0.0000000000000000000, 500.0000000000000000 ) ) ;
#154 = DIRECTION ( 'NONE',  ( -0.0000000000000000000, 0.0000000000000000000, 1.000000000000000000 ) ) ;
#155 = DIRECTION ( 'NONE',  ( 1.000000000000000000, 0.0000000000000000000, 0.0000000000000000000 ) ) ;
#156 = LINE ( 'NONE', #157, #5 ) ;
#157 = CARTESIAN_POINT ( 'NONE',  ( -12.50000000000000200, 10.00000000000000000, -500.0000000000000000 ) ) ;
#158 = DIRECTION ( 'NONE',  ( 1.734723475976807100E-016, -1.000000000000000000, 0.0000000000000000000 ) ) ;
#159 = PLANE ( 'NONE',  #17 ) ;
#160 = LINE ( 'NONE', #161, #20 ) ;
#161 = CARTESIAN_POINT ( 'NONE',  ( -12.49999999999999800, -10.00000000000000000, 500.0000000000000000 ) ) ;
#162 = DIRECTION ( 'NONE',  ( -0.0000000000000000000, -0.0000000000000000000, -1.000000000000000000 ) ) ;
#163 = CARTESIAN_POINT ( 'NONE',  ( 0.0000000000000000000, 0.0000000000000000000, -500.0000000000000000 ) ) ;
#164 = DIRECTION ( 'NONE',  ( -0.0000000000000000000, 0.0000000000000000000, 1.000000000000000000 ) ) ;
#165 = DIRECTION ( 'NONE',  ( 1.000000000000000000, 0.0000000000000000000, 0.0000000000000000000 ) ) ;
#166 = PLANE ( 'NONE',  #33 ) ;
#167 = CARTESIAN_POINT ( 'NONE',  ( -12.50000000000000200, 10.00000000000000000, 500.0000000000000000 ) ) ;
#168 = DIRECTION ( 'NONE',  ( 1.000000000000000000, 1.734723475976807100E-016, -0.0000000000000000000 ) ) ;
#169 = DIRECTION ( 'NONE',  ( -1.734723475976807100E-016, 1.000000000000000000, 0.0000000000000000000 ) ) ;
#170 = LINE ( 'NONE', #171, #45 ) ;
#171 = CARTESIAN_POINT ( 'NONE',  ( -12.50000000000000200, 10.00000000000000000, 500.0000000000000000 ) ) ;
#172 = DIRECTION ( 'NONE',  ( -1.000000000000000000, -0.0000000000000000000, -0.0000000000000000000 ) ) ;
#173 = DIRECTION ( 'NONE',  ( 0.0000000000000000000, -0.0000000000000000000, -1.000000000000000000 ) ) ;
#174 = DIRECTION ( 'NONE',  ( 1.000000000000000000, 0.0000000000000000000, 0.0000000000000000000 ) ) ;
#175 = PLANE ( 'NONE',  #27 ) ;
#176 = LINE ( 'NONE', #177, #19 ) ;
#177 = CARTESIAN_POINT ( 'NONE',  ( -12.49999999999999800, -10.00000000000000000, -500.0000000000000000 ) ) ;
#178 = CARTESIAN_POINT ( 'NONE',  ( -12.50000000000000200, 10.00000000000000000, 500.0000000000000000 ) ) ;
#179 = DIRECTION ( 'NONE',  ( 0.0000000000000000000, -1.000000000000000000, 0.0000000000000000000 ) ) ;
#180 = PLANE ( 'NONE',  #38 ) ;
#181 = DIRECTION ( 'NONE',  ( 0.0000000000000000000, 1.000000000000000000, 0.0000000000000000000 ) ) ;
#182 = DIRECTION ( 'NONE',  ( 1.734723475976807100E-016, -1.000000000000000000, 0.0000000000000000000 ) ) ;
#183 = LINE ( 'NONE', #210, #14 ) ;
#184 = CARTESIAN_POINT ( 'NONE',  ( -12.49999999999999800, -10.00000000000000000, 500.0000000000000000 ) ) ;
#185 = DIRECTION ( 'NONE',  ( 0.0000000000000000000, -0.0000000000000000000, 1.000000000000000000 ) ) ;
#186 = LINE ( 'NONE', #237, #49 ) ;
#187 = PLANE ( 'NONE',  #40 ) ;
#188 = MECHANICAL_CONTEXT ( 'NONE', #85, 'mechanical' ) ;
#189 = CARTESIAN_POINT ( 'NONE',  ( 0.0000000000000000000, 0.0000000000000000000, 0.0000000000000000000 ) ) ;
#190 = DATE_AND_TIME ( #30, #58 ) ;
#191 = DIRECTION ( 'NONE',  ( 0.0000000000000000000, 0.0000000000000000000, 1.000000000000000000 ) ) ;
#192 = DIRECTION ( 'NONE',  ( 1.000000000000000000, 0.0000000000000000000, 0.0000000000000000000 ) ) ;
#193 = DATE_TIME_ROLE ( 'classification_date' ) ;
#194 = SHAPE_DEFINITION_REPRESENTATION ( #89, #2 ) ;
#195 = APPLICATION_PROTOCOL_DEFINITION ( 'international standard', 'config_control_design', 1994, #85 ) ;
#196 = PERSON_AND_ORGANIZATION ( #1, #44 ) ;
#197 = PERSON_AND_ORGANIZATION_ROLE ( 'creator' ) ;
#198 = DATE_TIME_ROLE ( 'creation_date' ) ;
#199 = PERSON_AND_ORGANIZATION ( #1, #44 ) ;
#200 =( NAMED_UNIT ( * ) PLANE_ANGLE_UNIT ( ) SI_UNIT ( $, .RADIAN. ) );
#201 =( NAMED_UNIT ( * ) SI_UNIT ( $, .STERADIAN. ) SOLID_ANGLE_UNIT ( ) );
#202 = CARTESIAN_POINT ( 'NONE',  ( -12.49999999999999800, -10.00000000000000000, -500.0000000000000000 ) ) ;
#203 = PERSON_AND_ORGANIZATION ( #1, #44 ) ;
#204 = APPROVAL_ROLE ( '' ) ;
#205 = APPROVAL_STATUS ( 'not_yet_approved' ) ;
#206 = APPROVAL_DATE_TIME ( #190, #77 ) ;
#207 =( LENGTH_UNIT ( ) NAMED_UNIT ( * ) SI_UNIT ( .MILLI., .METRE. ) );
#208 = CARTESIAN_POINT ( 'NONE',  ( 12.49999999999999800, 10.00000000000000000, 500.0000000000000000 ) ) ;
#209 = DATE_AND_TIME ( #9, #51 ) ;
#210 = CARTESIAN_POINT ( 'NONE',  ( 12.49999999999999800, 10.00000000000000000, 500.0000000000000000 ) ) ;
#211 = DATE_AND_TIME ( #48, #79 ) ;
#212 = APPROVAL_DATE_TIME ( #211, #81 ) ;
#213 = CARTESIAN_POINT ( 'NONE',  ( -12.49999999999999800, -10.00000000000000000, 500.0000000000000000 ) ) ;
#214 = CARTESIAN_POINT ( 'NONE',  ( 12.49999999999999800, 10.00000000000000000, -500.0000000000000000 ) ) ;
#215 = CARTESIAN_POINT ( 'NONE',  ( -12.50000000000000200, 10.00000000000000000, 500.0000000000000000 ) ) ;
#216 = DIRECTION ( 'NONE',  ( -8.673617379884035500E-017, 1.000000000000000000, -0.0000000000000000000 ) ) ;
#217 = CARTESIAN_POINT ( 'NONE',  ( 12.50000000000000000, -10.00000000000000000, -500.0000000000000000 ) ) ;
#218 = CARTESIAN_POINT ( 'NONE',  ( -12.50000000000000200, 10.00000000000000000, -500.0000000000000000 ) ) ;
#219 = CARTESIAN_POINT ( 'NONE',  ( 12.50000000000000000, -10.00000000000000000, 500.0000000000000000 ) ) ;
#220 = DIRECTION ( 'NONE',  ( -1.000000000000000000, -8.673617379884035500E-017, 0.0000000000000000000 ) ) ;
#221 = DIRECTION ( 'NONE',  ( 8.673617379884035500E-017, -1.000000000000000000, 0.0000000000000000000 ) ) ;
#222 = LINE ( 'NONE', #223, #32 ) ;
#223 = CARTESIAN_POINT ( 'NONE',  ( 12.49999999999999800, 10.00000000000000000, -500.0000000000000000 ) ) ;
#224 = LINE ( 'NONE', #225, #8 ) ;
#225 = CARTESIAN_POINT ( 'NONE',  ( -12.49999999999999800, -10.00000000000000000, 500.0000000000000000 ) ) ;
#226 = DIRECTION ( 'NONE',  ( 1.000000000000000000, 0.0000000000000000000, 0.0000000000000000000 ) ) ;
#227 = CARTESIAN_POINT ( 'NONE',  ( 12.49999999999999800, 10.00000000000000000, 500.0000000000000000 ) ) ;
#228 = LINE ( 'NONE', #231, #35 ) ;
#229 = DIRECTION ( 'NONE',  ( -0.0000000000000000000, -0.0000000000000000000, -1.000000000000000000 ) ) ;
#230 = DIRECTION ( 'NONE',  ( -0.0000000000000000000, -0.0000000000000000000, -1.000000000000000000 ) ) ;
#231 = CARTESIAN_POINT ( 'NONE',  ( 12.50000000000000000, -10.00000000000000000, 500.0000000000000000 ) ) ;
#232 = PERSON_AND_ORGANIZATION ( #1, #44 ) ;
#233 = PERSON_AND_ORGANIZATION_ROLE ( 'design_supplier' ) ;
#234 = SECURITY_CLASSIFICATION_LEVEL ( 'unclassified' ) ;
#235 = PERSON_AND_ORGANIZATION ( #1, #44 ) ;
#236 = PERSON_AND_ORGANIZATION_ROLE ( 'classification_officer' ) ;
#237 = CARTESIAN_POINT ( 'NONE',  ( -12.50000000000000200, 10.00000000000000000, 500.0000000000000000 ) ) ;
ENDSEC;
END-ISO-10303-21;
