ISO-10303-21;
HEADER;
FILE_DESCRIPTION (( 'STEP AP203' ),
    '1' );
FILE_NAME ('sone3D.STEP',
    '2015-08-11T10:28:09',
    ( '' ),
    ( '' ),
    'SwSTEP 2.0',
    'SolidWorks 2012',
    '' );
FILE_SCHEMA (( 'CONFIG_CONTROL_DESIGN' ));
ENDSEC;

DATA;
#1 = PERSON ( 'UNSPECIFIED', 'UNSPECIFIED', 'UNSPECIFIED', ('UNSPECIFIED'), ('UNSPECIFIED'), ('UNSPECIFIED') ) ;
#2 = ADVANCED_BREP_SHAPE_REPRESENTATION ( 'sone3D', ( #90, #14 ), #87 ) ;
#3 = UNCERTAINTY_MEASURE_WITH_UNIT (LENGTH_MEASURE( 1.000000000000000100E-005 ), #96, 'distance_accuracy_value', 'NONE');
#4 = VECTOR ( 'NONE', #171, 1000.000000000000000 ) ;
#5 = VECTOR ( 'NONE', #121, 1000.000000000000000 ) ;
#6 = FACE_OUTER_BOUND ( 'NONE', #91, .T. ) ;
#7 = VECTOR ( 'NONE', #181, 1000.000000000000000 ) ;
#8 = VECTOR ( 'NONE', #116, 1000.000000000000000 ) ;
#9 = FACE_OUTER_BOUND ( 'NONE', #101, .T. ) ;
#10 = CC_DESIGN_SECURITY_CLASSIFICATION ( #28, ( #25 ) ) ;
#11 = COORDINATED_UNIVERSAL_TIME_OFFSET ( 9, 0, .AHEAD. ) ;
#12 = VECTOR ( 'NONE', #137, 1000.000000000000000 ) ;
#13 = VECTOR ( 'NONE', #123, 1000.000000000000000 ) ;
#14 = AXIS2_PLACEMENT_3D ( 'NONE', #163, #168, #164 ) ;
#15 = CALENDAR_DATE ( 2015, 11, 8 ) ;
#16 = APPROVAL_PERSON_ORGANIZATION ( #203, #57, #210 ) ;
#17 = CC_DESIGN_APPROVAL ( #70, ( #25 ) ) ;
#18 = FACE_OUTER_BOUND ( 'NONE', #106, .T. ) ;
#19 = FACE_OUTER_BOUND ( 'NONE', #99, .T. ) ;
#20 = CLOSED_SHELL ( 'NONE', ( #50, #77, #69, #65, #83, #54 ) ) ;
#21 = AXIS2_PLACEMENT_3D ( 'NONE', #190, #189, #187 ) ;
#22 = FACE_OUTER_BOUND ( 'NONE', #104, .T. ) ;
#23 = CALENDAR_DATE ( 2015, 11, 8 ) ;
#24 = VECTOR ( 'NONE', #111, 1000.000000000000000 ) ;
#25 = PRODUCT_DEFINITION_FORMATION_WITH_SPECIFIED_SOURCE ( 'ANY', '', #226, .NOT_KNOWN. ) ;
#26 = CC_DESIGN_APPROVAL ( #74, ( #73 ) ) ;
#27 = CALENDAR_DATE ( 2015, 11, 8 ) ;
#28 = SECURITY_CLASSIFICATION ( '', '', #202 ) ;
#29 = VECTOR ( 'NONE', #115, 1000.000000000000000 ) ;
#30 = APPROVAL_PERSON_ORGANIZATION ( #211, #70, #208 ) ;
#31 = VECTOR ( 'NONE', #146, 1000.000000000000000 ) ;
#32 = CALENDAR_DATE ( 2015, 11, 8 ) ;
#33 = CC_DESIGN_APPROVAL ( #57, ( #28 ) ) ;
#34 = AXIS2_PLACEMENT_3D ( 'NONE', #117, #118, #119 ) ;
#35 = COORDINATED_UNIVERSAL_TIME_OFFSET ( 9, 0, .AHEAD. ) ;
#36 = COORDINATED_UNIVERSAL_TIME_OFFSET ( 9, 0, .AHEAD. ) ;
#37 = VECTOR ( 'NONE', #98, 1000.000000000000000 ) ;
#38 = APPROVAL_PERSON_ORGANIZATION ( #200, #74, #196 ) ;
#39 = COORDINATED_UNIVERSAL_TIME_OFFSET ( 9, 0, .AHEAD. ) ;
#40 = AXIS2_PLACEMENT_3D ( 'NONE', #102, #105, #107 ) ;
#41 = VECTOR ( 'NONE', #193, 1000.000000000000000 ) ;
#42 = AXIS2_PLACEMENT_3D ( 'NONE', #133, #134, #135 ) ;
#43 = CALENDAR_DATE ( 2015, 11, 8 ) ;
#44 = ORGANIZATION ( 'UNSPECIFIED', 'UNSPECIFIED', '' ) ;
#45 = AXIS2_PLACEMENT_3D ( 'NONE', #184, #185, #182 ) ;
#46 = COORDINATED_UNIVERSAL_TIME_OFFSET ( 9, 0, .AHEAD. ) ;
#47 = VECTOR ( 'NONE', #129, 1000.000000000000000 ) ;
#48 = AXIS2_PLACEMENT_3D ( 'NONE', #173, #174, #175 ) ;
#49 = FACE_OUTER_BOUND ( 'NONE', #100, .T. ) ;
#50 = ADVANCED_FACE ( 'NONE', ( #19 ), #103, .F. ) ;
#51 = EDGE_CURVE ( 'NONE', #229, #231, #108, .T. ) ;
#52 = EDGE_CURVE ( 'NONE', #237, #228, #191, .T. ) ;
#53 = EDGE_CURVE ( 'NONE', #227, #231, #112, .T. ) ;
#54 = ADVANCED_FACE ( 'NONE', ( #9 ), #110, .F. ) ;
#55 = LOCAL_TIME ( 19, 28, 9.000000000000000000, #46 ) ;
#56 = EDGE_CURVE ( 'NONE', #231, #232, #120, .T. ) ;
#57 = APPROVAL ( #216, 'UNSPECIFIED' ) ;
#58 = CC_DESIGN_DATE_AND_TIME_ASSIGNMENT ( #205, #204, ( #28 ) ) ;
#59 = CC_DESIGN_DATE_AND_TIME_ASSIGNMENT ( #213, #214, ( #73 ) ) ;
#60 = EDGE_CURVE ( 'NONE', #230, #232, #125, .T. ) ;
#61 = CC_DESIGN_PERSON_AND_ORGANIZATION_ASSIGNMENT ( #224, #225, ( #25 ) ) ;
#62 = CC_DESIGN_PERSON_AND_ORGANIZATION_ASSIGNMENT ( #223, #222, ( #25 ) ) ;
#63 = EDGE_CURVE ( 'NONE', #232, #233, #127, .T. ) ;
#64 = EDGE_CURVE ( 'NONE', #228, #227, #130, .T. ) ;
#65 = ADVANCED_FACE ( 'NONE', ( #18 ), #124, .F. ) ;
#66 = EDGE_CURVE ( 'NONE', #230, #237, #136, .T. ) ;
#67 = EDGE_CURVE ( 'NONE', #228, #229, #144, .T. ) ;
#68 = EDGE_CURVE ( 'NONE', #229, #230, #149, .T. ) ;
#69 = ADVANCED_FACE ( 'NONE', ( #6 ), #142, .F. ) ;
#70 = APPROVAL ( #220, 'UNSPECIFIED' ) ;
#71 = LOCAL_TIME ( 19, 28, 9.000000000000000000, #36 ) ;
#72 = CC_DESIGN_PERSON_AND_ORGANIZATION_ASSIGNMENT ( #207, #206, ( #28 ) ) ;
#73 = PRODUCT_DEFINITION ( 'UNKNOWN', '', #25, #89 ) ;
#74 = APPROVAL ( #197, 'UNSPECIFIED' ) ;
#75 = EDGE_CURVE ( 'NONE', #237, #233, #176, .T. ) ;
#76 = EDGE_CURVE ( 'NONE', #233, #227, #192, .T. ) ;
#77 = ADVANCED_FACE ( 'NONE', ( #49 ), #198, .F. ) ;
#78 = CC_DESIGN_PERSON_AND_ORGANIZATION_ASSIGNMENT ( #169, #199, ( #226 ) ) ;
#79 = LOCAL_TIME ( 19, 28, 9.000000000000000000, #35 ) ;
#80 = CC_DESIGN_PERSON_AND_ORGANIZATION_ASSIGNMENT ( #212, #217, ( #73 ) ) ;
#81 = LOCAL_TIME ( 19, 28, 9.000000000000000000, #39 ) ;
#82 = LOCAL_TIME ( 19, 28, 9.000000000000000000, #11 ) ;
#83 = ADVANCED_FACE ( 'NONE', ( #22 ), #186, .T. ) ;
#84 = PRODUCT_RELATED_PRODUCT_CATEGORY ( 'detail', '', ( #226 ) ) ;
#85 = APPLICATION_CONTEXT ( 'configuration controlled 3d designs of mechanical parts and assemblies' ) ;
#86 = APPLICATION_CONTEXT ( 'configuration controlled 3d designs of mechanical parts and assemblies' ) ;
#87 =( GEOMETRIC_REPRESENTATION_CONTEXT ( 3 ) GLOBAL_UNCERTAINTY_ASSIGNED_CONTEXT ( ( #3 ) ) GLOBAL_UNIT_ASSIGNED_CONTEXT ( ( #96, #95, #97 ) ) REPRESENTATION_CONTEXT ( 'NONE', 'WORKASPACE' ) );
#88 = PRODUCT_DEFINITION_SHAPE ( 'NONE', 'NONE',  #73 ) ;
#89 = DESIGN_CONTEXT ( 'detailed design', #85, 'design' ) ;
#90 = MANIFOLD_SOLID_BREP ( 'ÎÞ½ - µoµ1', #20 ) ;
#91 = EDGE_LOOP ( 'NONE', ( #151, #161, #234, #236 ) ) ;
#92 = CARTESIAN_POINT ( 'NONE',  ( -9.000000000000001800, 9.000000000000001800, -500.0000000000000000 ) ) ;
#93 = CARTESIAN_POINT ( 'NONE',  ( 9.000000000000001800, -8.999999999999998200, -500.0000000000000000 ) ) ;
#94 = CARTESIAN_POINT ( 'NONE',  ( 9.000000000000001800, -8.999999999999998200, 500.0000000000000000 ) ) ;
#95 =( NAMED_UNIT ( * ) PLANE_ANGLE_UNIT ( ) SI_UNIT ( $, .RADIAN. ) );
#96 =( LENGTH_UNIT ( ) NAMED_UNIT ( * ) SI_UNIT ( .MILLI., .METRE. ) );
#97 =( NAMED_UNIT ( * ) SI_UNIT ( $, .STERADIAN. ) SOLID_ANGLE_UNIT ( ) );
#98 = DIRECTION ( 'NONE',  ( -0.0000000000000000000, -0.0000000000000000000, -1.000000000000000000 ) ) ;
#99 = EDGE_LOOP ( 'NONE', ( #159, #147, #148, #165 ) ) ;
#100 = EDGE_LOOP ( 'NONE', ( #150, #152, #154, #158 ) ) ;
#101 = EDGE_LOOP ( 'NONE', ( #139, #141, #140, #138 ) ) ;
#102 = CARTESIAN_POINT ( 'NONE',  ( -9.000000000000001800, 9.000000000000001800, 500.0000000000000000 ) ) ;
#103 = PLANE ( 'NONE',  #40 ) ;
#104 = EDGE_LOOP ( 'NONE', ( #155, #162, #114, #160 ) ) ;
#105 = DIRECTION ( 'NONE',  ( 1.000000000000000000, 3.854941057726238100E-016, -0.0000000000000000000 ) ) ;
#106 = EDGE_LOOP ( 'NONE', ( #235, #156, #143, #157 ) ) ;
#107 = DIRECTION ( 'NONE',  ( -3.854941057726238100E-016, 1.000000000000000000, 0.0000000000000000000 ) ) ;
#108 = LINE ( 'NONE', #109, #29 ) ;
#109 = CARTESIAN_POINT ( 'NONE',  ( -9.000000000000001800, 9.000000000000001800, 500.0000000000000000 ) ) ;
#110 = PLANE ( 'NONE',  #34 ) ;
#111 = DIRECTION ( 'NONE',  ( -1.927470528863119000E-016, 1.000000000000000000, -0.0000000000000000000 ) ) ;
#112 = LINE ( 'NONE', #113, #8 ) ;
#113 = CARTESIAN_POINT ( 'NONE',  ( -9.000000000000001800, 9.000000000000001800, -500.0000000000000000 ) ) ;
#114 = ORIENTED_EDGE ( 'NONE', *, *, #52, .T. ) ;
#115 = DIRECTION ( 'NONE',  ( -0.0000000000000000000, -0.0000000000000000000, -1.000000000000000000 ) ) ;
#116 = DIRECTION ( 'NONE',  ( -1.000000000000000000, -0.0000000000000000000, -0.0000000000000000000 ) ) ;
#117 = CARTESIAN_POINT ( 'NONE',  ( 0.0000000000000000000, 0.0000000000000000000, -500.0000000000000000 ) ) ;
#118 = DIRECTION ( 'NONE',  ( -0.0000000000000000000, 0.0000000000000000000, 1.000000000000000000 ) ) ;
#119 = DIRECTION ( 'NONE',  ( 1.000000000000000000, 0.0000000000000000000, 0.0000000000000000000 ) ) ;
#120 = LINE ( 'NONE', #122, #13 ) ;
#121 = DIRECTION ( 'NONE',  ( -0.0000000000000000000, -0.0000000000000000000, -1.000000000000000000 ) ) ;
#122 = CARTESIAN_POINT ( 'NONE',  ( -9.000000000000001800, 9.000000000000001800, -500.0000000000000000 ) ) ;
#123 = DIRECTION ( 'NONE',  ( 3.854941057726238100E-016, -1.000000000000000000, 0.0000000000000000000 ) ) ;
#124 = PLANE ( 'NONE',  #42 ) ;
#125 = LINE ( 'NONE', #126, #5 ) ;
#126 = CARTESIAN_POINT ( 'NONE',  ( -8.999999999999994700, -8.999999999999998200, 500.0000000000000000 ) ) ;
#127 = LINE ( 'NONE', #128, #47 ) ;
#128 = CARTESIAN_POINT ( 'NONE',  ( -8.999999999999994700, -8.999999999999998200, -500.0000000000000000 ) ) ;
#129 = DIRECTION ( 'NONE',  ( 1.000000000000000000, 0.0000000000000000000, 0.0000000000000000000 ) ) ;
#130 = LINE ( 'NONE', #131, #37 ) ;
#131 = CARTESIAN_POINT ( 'NONE',  ( 8.999999999999998200, 9.000000000000001800, 500.0000000000000000 ) ) ;
#132 = CARTESIAN_POINT ( 'NONE',  ( 8.999999999999998200, 9.000000000000001800, 500.0000000000000000 ) ) ;
#133 = CARTESIAN_POINT ( 'NONE',  ( -9.000000000000001800, 9.000000000000001800, 500.0000000000000000 ) ) ;
#134 = DIRECTION ( 'NONE',  ( 0.0000000000000000000, -1.000000000000000000, 0.0000000000000000000 ) ) ;
#135 = DIRECTION ( 'NONE',  ( 0.0000000000000000000, -0.0000000000000000000, -1.000000000000000000 ) ) ;
#136 = LINE ( 'NONE', #172, #12 ) ;
#137 = DIRECTION ( 'NONE',  ( 1.000000000000000000, 0.0000000000000000000, 0.0000000000000000000 ) ) ;
#138 = ORIENTED_EDGE ( 'NONE', *, *, #63, .F. ) ;
#139 = ORIENTED_EDGE ( 'NONE', *, *, #56, .F. ) ;
#140 = ORIENTED_EDGE ( 'NONE', *, *, #76, .F. ) ;
#141 = ORIENTED_EDGE ( 'NONE', *, *, #53, .F. ) ;
#142 = PLANE ( 'NONE',  #48 ) ;
#143 = ORIENTED_EDGE ( 'NONE', *, *, #67, .F. ) ;
#144 = LINE ( 'NONE', #145, #31 ) ;
#145 = CARTESIAN_POINT ( 'NONE',  ( -9.000000000000001800, 9.000000000000001800, 500.0000000000000000 ) ) ;
#146 = DIRECTION ( 'NONE',  ( -1.000000000000000000, -0.0000000000000000000, -0.0000000000000000000 ) ) ;
#147 = ORIENTED_EDGE ( 'NONE', *, *, #60, .F. ) ;
#148 = ORIENTED_EDGE ( 'NONE', *, *, #68, .F. ) ;
#149 = LINE ( 'NONE', #153, #4 ) ;
#150 = ORIENTED_EDGE ( 'NONE', *, *, #63, .T. ) ;
#151 = ORIENTED_EDGE ( 'NONE', *, *, #76, .T. ) ;
#152 = ORIENTED_EDGE ( 'NONE', *, *, #75, .F. ) ;
#153 = CARTESIAN_POINT ( 'NONE',  ( -9.000000000000001800, 9.000000000000001800, 500.0000000000000000 ) ) ;
#154 = ORIENTED_EDGE ( 'NONE', *, *, #66, .F. ) ;
#155 = ORIENTED_EDGE ( 'NONE', *, *, #68, .T. ) ;
#156 = ORIENTED_EDGE ( 'NONE', *, *, #51, .F. ) ;
#157 = ORIENTED_EDGE ( 'NONE', *, *, #64, .T. ) ;
#158 = ORIENTED_EDGE ( 'NONE', *, *, #60, .T. ) ;
#159 = ORIENTED_EDGE ( 'NONE', *, *, #56, .T. ) ;
#160 = ORIENTED_EDGE ( 'NONE', *, *, #67, .T. ) ;
#161 = ORIENTED_EDGE ( 'NONE', *, *, #64, .F. ) ;
#162 = ORIENTED_EDGE ( 'NONE', *, *, #66, .T. ) ;
#163 = CARTESIAN_POINT ( 'NONE',  ( 0.0000000000000000000, 0.0000000000000000000, 0.0000000000000000000 ) ) ;
#164 = DIRECTION ( 'NONE',  ( 1.000000000000000000, 0.0000000000000000000, 0.0000000000000000000 ) ) ;
#165 = ORIENTED_EDGE ( 'NONE', *, *, #51, .T. ) ;
#166 = SHAPE_DEFINITION_REPRESENTATION ( #88, #2 ) ;
#167 = MECHANICAL_CONTEXT ( 'NONE', #86, 'mechanical' ) ;
#168 = DIRECTION ( 'NONE',  ( 0.0000000000000000000, 0.0000000000000000000, 1.000000000000000000 ) ) ;
#169 = PERSON_AND_ORGANIZATION ( #1, #44 ) ;
#170 = APPLICATION_PROTOCOL_DEFINITION ( 'international standard', 'config_control_design', 1994, #86 ) ;
#171 = DIRECTION ( 'NONE',  ( 3.854941057726238100E-016, -1.000000000000000000, 0.0000000000000000000 ) ) ;
#172 = CARTESIAN_POINT ( 'NONE',  ( -8.999999999999994700, -8.999999999999998200, 500.0000000000000000 ) ) ;
#173 = CARTESIAN_POINT ( 'NONE',  ( 8.999999999999998200, 9.000000000000001800, 500.0000000000000000 ) ) ;
#174 = DIRECTION ( 'NONE',  ( -1.000000000000000000, -1.927470528863119000E-016, 0.0000000000000000000 ) ) ;
#175 = DIRECTION ( 'NONE',  ( 1.927470528863119000E-016, -1.000000000000000000, 0.0000000000000000000 ) ) ;
#176 = LINE ( 'NONE', #177, #41 ) ;
#177 = CARTESIAN_POINT ( 'NONE',  ( 9.000000000000001800, -8.999999999999998200, 500.0000000000000000 ) ) ;
#178 = CARTESIAN_POINT ( 'NONE',  ( -8.999999999999994700, -8.999999999999998200, 500.0000000000000000 ) ) ;
#179 = CARTESIAN_POINT ( 'NONE',  ( 8.999999999999998200, 9.000000000000001800, 500.0000000000000000 ) ) ;
#180 = CARTESIAN_POINT ( 'NONE',  ( -9.000000000000001800, 9.000000000000001800, 500.0000000000000000 ) ) ;
#181 = DIRECTION ( 'NONE',  ( -1.927470528863119000E-016, 1.000000000000000000, -0.0000000000000000000 ) ) ;
#182 = DIRECTION ( 'NONE',  ( 1.000000000000000000, 0.0000000000000000000, 0.0000000000000000000 ) ) ;
#183 = CARTESIAN_POINT ( 'NONE',  ( 8.999999999999998200, 9.000000000000001800, -500.0000000000000000 ) ) ;
#184 = CARTESIAN_POINT ( 'NONE',  ( 0.0000000000000000000, 0.0000000000000000000, 500.0000000000000000 ) ) ;
#185 = DIRECTION ( 'NONE',  ( -0.0000000000000000000, 0.0000000000000000000, 1.000000000000000000 ) ) ;
#186 = PLANE ( 'NONE',  #45 ) ;
#187 = DIRECTION ( 'NONE',  ( 0.0000000000000000000, -0.0000000000000000000, 1.000000000000000000 ) ) ;
#188 = CARTESIAN_POINT ( 'NONE',  ( 8.999999999999998200, 9.000000000000001800, -500.0000000000000000 ) ) ;
#189 = DIRECTION ( 'NONE',  ( 0.0000000000000000000, 1.000000000000000000, 0.0000000000000000000 ) ) ;
#190 = CARTESIAN_POINT ( 'NONE',  ( -8.999999999999994700, -8.999999999999998200, 500.0000000000000000 ) ) ;
#191 = LINE ( 'NONE', #132, #24 ) ;
#192 = LINE ( 'NONE', #188, #7 ) ;
#193 = DIRECTION ( 'NONE',  ( -0.0000000000000000000, -0.0000000000000000000, -1.000000000000000000 ) ) ;
#194 = APPROVAL_DATE_TIME ( #195, #74 ) ;
#195 = DATE_AND_TIME ( #23, #81 ) ;
#196 = APPROVAL_ROLE ( '' ) ;
#197 = APPROVAL_STATUS ( 'not_yet_approved' ) ;
#198 = PLANE ( 'NONE',  #21 ) ;
#199 = PERSON_AND_ORGANIZATION_ROLE ( 'design_owner' ) ;
#200 = PERSON_AND_ORGANIZATION ( #1, #44 ) ;
#201 = APPLICATION_PROTOCOL_DEFINITION ( 'international standard', 'config_control_design', 1994, #85 ) ;
#202 = SECURITY_CLASSIFICATION_LEVEL ( 'unclassified' ) ;
#203 = PERSON_AND_ORGANIZATION ( #1, #44 ) ;
#204 = DATE_TIME_ROLE ( 'classification_date' ) ;
#205 = DATE_AND_TIME ( #32, #79 ) ;
#206 = PERSON_AND_ORGANIZATION_ROLE ( 'classification_officer' ) ;
#207 = PERSON_AND_ORGANIZATION ( #1, #44 ) ;
#208 = APPROVAL_ROLE ( '' ) ;
#209 = APPROVAL_DATE_TIME ( #215, #57 ) ;
#210 = APPROVAL_ROLE ( '' ) ;
#211 = PERSON_AND_ORGANIZATION ( #1, #44 ) ;
#212 = PERSON_AND_ORGANIZATION ( #1, #44 ) ;
#213 = DATE_AND_TIME ( #15, #55 ) ;
#214 = DATE_TIME_ROLE ( 'creation_date' ) ;
#215 = DATE_AND_TIME ( #43, #71 ) ;
#216 = APPROVAL_STATUS ( 'not_yet_approved' ) ;
#217 = PERSON_AND_ORGANIZATION_ROLE ( 'creator' ) ;
#218 = APPROVAL_DATE_TIME ( #219, #70 ) ;
#219 = DATE_AND_TIME ( #27, #82 ) ;
#220 = APPROVAL_STATUS ( 'not_yet_approved' ) ;
#221 = CARTESIAN_POINT ( 'NONE',  ( -8.999999999999994700, -8.999999999999998200, -500.0000000000000000 ) ) ;
#222 = PERSON_AND_ORGANIZATION_ROLE ( 'design_supplier' ) ;
#223 = PERSON_AND_ORGANIZATION ( #1, #44 ) ;
#224 = PERSON_AND_ORGANIZATION ( #1, #44 ) ;
#225 = PERSON_AND_ORGANIZATION_ROLE ( 'creator' ) ;
#226 = PRODUCT ( 'sone3D', 'sone3D', '', ( #167 ) ) ;
#227 = VERTEX_POINT ( 'NONE', #183 ) ;
#228 = VERTEX_POINT ( 'NONE', #179 ) ;
#229 = VERTEX_POINT ( 'NONE', #180 ) ;
#230 = VERTEX_POINT ( 'NONE', #178 ) ;
#231 = VERTEX_POINT ( 'NONE', #92 ) ;
#232 = VERTEX_POINT ( 'NONE', #221 ) ;
#233 = VERTEX_POINT ( 'NONE', #93 ) ;
#234 = ORIENTED_EDGE ( 'NONE', *, *, #52, .F. ) ;
#235 = ORIENTED_EDGE ( 'NONE', *, *, #53, .T. ) ;
#236 = ORIENTED_EDGE ( 'NONE', *, *, #75, .T. ) ;
#237 = VERTEX_POINT ( 'NONE', #94 ) ;
ENDSEC;
END-ISO-10303-21;
