ISO-10303-21;
HEADER;
FILE_DESCRIPTION (( 'STEP AP203' ),
    '1' );
FILE_NAME ('sone3D.STEP',
    '2015-08-11T10:27:29',
    ( '' ),
    ( '' ),
    'SwSTEP 2.0',
    'SolidWorks 2012',
    '' );
FILE_SCHEMA (( 'CONFIG_CONTROL_DESIGN' ));
ENDSEC;

DATA;
#1 = VECTOR ( 'NONE', #200, 1000.000000000000000 ) ;
#2 = APPROVAL_PERSON_ORGANIZATION ( #97, #74, #95 ) ;
#3 = APPROVAL_PERSON_ORGANIZATION ( #127, #61, #124 ) ;
#4 = CC_DESIGN_SECURITY_CLASSIFICATION ( #13, ( #35 ) ) ;
#5 = VECTOR ( 'NONE', #197, 1000.000000000000000 ) ;
#6 = CC_DESIGN_APPROVAL ( #56, ( #35 ) ) ;
#7 = VECTOR ( 'NONE', #193, 1000.000000000000000 ) ;
#8 = AXIS2_PLACEMENT_3D ( 'NONE', #138, #131, #133 ) ;
#9 = COORDINATED_UNIVERSAL_TIME_OFFSET ( 9, 0, .AHEAD. ) ;
#10 = VECTOR ( 'NONE', #213, 1000.000000000000000 ) ;
#11 = APPROVAL_PERSON_ORGANIZATION ( #110, #56, #109 ) ;
#12 = FACE_OUTER_BOUND ( 'NONE', #189, .T. ) ;
#13 = SECURITY_CLASSIFICATION ( '', '', #121 ) ;
#14 = VECTOR ( 'NONE', #91, 1000.000000000000000 ) ;
#15 = VECTOR ( 'NONE', #236, 1000.000000000000000 ) ;
#16 = VECTOR ( 'NONE', #223, 1000.000000000000000 ) ;
#17 = COORDINATED_UNIVERSAL_TIME_OFFSET ( 9, 0, .AHEAD. ) ;
#18 = FACE_OUTER_BOUND ( 'NONE', #185, .T. ) ;
#19 = VECTOR ( 'NONE', #216, 1000.000000000000000 ) ;
#20 = CALENDAR_DATE ( 2015, 11, 8 ) ;
#21 = CALENDAR_DATE ( 2015, 11, 8 ) ;
#22 = FACE_OUTER_BOUND ( 'NONE', #186, .T. ) ;
#23 = CC_DESIGN_APPROVAL ( #61, ( #13 ) ) ;
#24 = CALENDAR_DATE ( 2015, 11, 8 ) ;
#25 = CLOSED_SHELL ( 'NONE', ( #53, #77, #66, #78, #81, #63 ) ) ;
#26 = CC_DESIGN_APPROVAL ( #74, ( #71 ) ) ;
#27 = FACE_OUTER_BOUND ( 'NONE', #188, .T. ) ;
#28 = COORDINATED_UNIVERSAL_TIME_OFFSET ( 9, 0, .AHEAD. ) ;
#29 = AXIS2_PLACEMENT_3D ( 'NONE', #136, #135, #134 ) ;
#30 = AXIS2_PLACEMENT_3D ( 'NONE', #204, #205, #206 ) ;
#31 = CALENDAR_DATE ( 2015, 11, 8 ) ;
#32 = FACE_OUTER_BOUND ( 'NONE', #187, .T. ) ;
#33 = COORDINATED_UNIVERSAL_TIME_OFFSET ( 9, 0, .AHEAD. ) ;
#34 = CALENDAR_DATE ( 2015, 11, 8 ) ;
#35 = PRODUCT_DEFINITION_FORMATION_WITH_SPECIFIED_SOURCE ( 'ANY', '', #152, .NOT_KNOWN. ) ;
#36 = VECTOR ( 'NONE', #203, 1000.000000000000000 ) ;
#37 = AXIS2_PLACEMENT_3D ( 'NONE', #229, #234, #235 ) ;
#38 = FACE_OUTER_BOUND ( 'NONE', #190, .T. ) ;
#39 = AXIS2_PLACEMENT_3D ( 'NONE', #128, #129, #104 ) ;
#40 = AXIS2_PLACEMENT_3D ( 'NONE', #227, #221, #224 ) ;
#41 = COORDINATED_UNIVERSAL_TIME_OFFSET ( 9, 0, .AHEAD. ) ;
#42 = ORGANIZATION ( 'UNSPECIFIED', 'UNSPECIFIED', '' ) ;
#43 = AXIS2_PLACEMENT_3D ( 'NONE', #140, #139, #137 ) ;
#44 = VECTOR ( 'NONE', #219, 1000.000000000000000 ) ;
#45 = VECTOR ( 'NONE', #226, 1000.000000000000000 ) ;
#46 = VECTOR ( 'NONE', #209, 1000.000000000000000 ) ;
#47 = EDGE_CURVE ( 'NONE', #153, #154, #191, .T. ) ;
#48 = EDGE_CURVE ( 'NONE', #159, #153, #195, .T. ) ;
#49 = LOCAL_TIME ( 19, 27, 29.00000000000000000, #41 ) ;
#50 = EDGE_CURVE ( 'NONE', #157, #159, #198, .T. ) ;
#51 = EDGE_CURVE ( 'NONE', #158, #154, #201, .T. ) ;
#52 = CC_DESIGN_PERSON_AND_ORGANIZATION_ASSIGNMENT ( #119, #114, ( #71 ) ) ;
#53 = ADVANCED_FACE ( 'NONE', ( #27 ), #194, .F. ) ;
#54 = PRODUCT_RELATED_PRODUCT_CATEGORY ( 'detail', '', ( #152 ) ) ;
#55 = EDGE_CURVE ( 'NONE', #160, #158, #207, .T. ) ;
#56 = APPROVAL ( #116, 'UNSPECIFIED' ) ;
#57 = EDGE_CURVE ( 'NONE', #157, #160, #211, .T. ) ;
#58 = LOCAL_TIME ( 19, 27, 29.00000000000000000, #17 ) ;
#59 = EDGE_CURVE ( 'NONE', #155, #156, #214, .T. ) ;
#60 = EDGE_CURVE ( 'NONE', #156, #160, #217, .T. ) ;
#61 = APPROVAL ( #125, 'UNSPECIFIED' ) ;
#62 = EDGE_CURVE ( 'NONE', #159, #158, #220, .T. ) ;
#63 = ADVANCED_FACE ( 'NONE', ( #18 ), #210, .F. ) ;
#64 = CC_DESIGN_DATE_AND_TIME_ASSIGNMENT ( #113, #112, ( #71 ) ) ;
#65 = EDGE_CURVE ( 'NONE', #155, #157, #225, .T. ) ;
#66 = ADVANCED_FACE ( 'NONE', ( #12 ), #233, .F. ) ;
#67 = CC_DESIGN_DATE_AND_TIME_ASSIGNMENT ( #120, #126, ( #13 ) ) ;
#68 = CC_DESIGN_PERSON_AND_ORGANIZATION_ASSIGNMENT ( #111, #105, ( #35 ) ) ;
#69 = CC_DESIGN_PERSON_AND_ORGANIZATION_ASSIGNMENT ( #100, #98, ( #152 ) ) ;
#70 = EDGE_CURVE ( 'NONE', #154, #156, #231, .T. ) ;
#71 = PRODUCT_DEFINITION ( 'UNKNOWN', '', #35, #90 ) ;
#72 = LOCAL_TIME ( 19, 27, 29.00000000000000000, #9 ) ;
#73 = EDGE_CURVE ( 'NONE', #153, #155, #237, .T. ) ;
#74 = APPROVAL ( #96, 'UNSPECIFIED' ) ;
#75 = CC_DESIGN_PERSON_AND_ORGANIZATION_ASSIGNMENT ( #106, #117, ( #35 ) ) ;
#76 = LOCAL_TIME ( 19, 27, 29.00000000000000000, #28 ) ;
#77 = ADVANCED_FACE ( 'NONE', ( #38 ), #232, .F. ) ;
#78 = ADVANCED_FACE ( 'NONE', ( #32 ), #142, .F. ) ;
#79 = CC_DESIGN_PERSON_AND_ORGANIZATION_ASSIGNMENT ( #151, #118, ( #13 ) ) ;
#80 = LOCAL_TIME ( 19, 27, 29.00000000000000000, #33 ) ;
#81 = ADVANCED_FACE ( 'NONE', ( #22 ), #132, .T. ) ;
#82 = UNCERTAINTY_MEASURE_WITH_UNIT (LENGTH_MEASURE( 1.000000000000000100E-005 ), #150, 'distance_accuracy_value', 'NONE');
#83 = ADVANCED_BREP_SHAPE_REPRESENTATION ( 'sone3D', ( #89, #39 ), #87 ) ;
#84 = PERSON ( 'UNSPECIFIED', 'UNSPECIFIED', 'UNSPECIFIED', ('UNSPECIFIED'), ('UNSPECIFIED'), ('UNSPECIFIED') ) ;
#85 = APPLICATION_CONTEXT ( 'configuration controlled 3d designs of mechanical parts and assemblies' ) ;
#86 = APPLICATION_CONTEXT ( 'configuration controlled 3d designs of mechanical parts and assemblies' ) ;
#87 =( GEOMETRIC_REPRESENTATION_CONTEXT ( 3 ) GLOBAL_UNCERTAINTY_ASSIGNED_CONTEXT ( ( #82 ) ) GLOBAL_UNIT_ASSIGNED_CONTEXT ( ( #150, #99, #93 ) ) REPRESENTATION_CONTEXT ( 'NONE', 'WORKASPACE' ) );
#88 = PRODUCT_DEFINITION_SHAPE ( 'NONE', 'NONE',  #71 ) ;
#89 = MANIFOLD_SOLID_BREP ( 'ÎÞ½ - µoµ1', #25 ) ;
#90 = DESIGN_CONTEXT ( 'detailed design', #86, 'design' ) ;
#91 = DIRECTION ( 'NONE',  ( 2.312964634635743000E-016, -1.000000000000000000, 0.0000000000000000000 ) ) ;
#92 = APPLICATION_PROTOCOL_DEFINITION ( 'international standard', 'config_control_design', 1994, #85 ) ;
#93 =( NAMED_UNIT ( * ) SI_UNIT ( $, .STERADIAN. ) SOLID_ANGLE_UNIT ( ) );
#94 = DATE_AND_TIME ( #34, #72 ) ;
#95 = APPROVAL_ROLE ( '' ) ;
#96 = APPROVAL_STATUS ( 'not_yet_approved' ) ;
#97 = PERSON_AND_ORGANIZATION ( #84, #42 ) ;
#98 = PERSON_AND_ORGANIZATION_ROLE ( 'design_owner' ) ;
#99 =( NAMED_UNIT ( * ) PLANE_ANGLE_UNIT ( ) SI_UNIT ( $, .RADIAN. ) );
#100 = PERSON_AND_ORGANIZATION ( #84, #42 ) ;
#101 = MECHANICAL_CONTEXT ( 'NONE', #85, 'mechanical' ) ;
#102 = APPLICATION_PROTOCOL_DEFINITION ( 'international standard', 'config_control_design', 1994, #86 ) ;
#103 = SHAPE_DEFINITION_REPRESENTATION ( #88, #83 ) ;
#104 = DIRECTION ( 'NONE',  ( 1.000000000000000000, 0.0000000000000000000, 0.0000000000000000000 ) ) ;
#105 = PERSON_AND_ORGANIZATION_ROLE ( 'creator' ) ;
#106 = PERSON_AND_ORGANIZATION ( #84, #42 ) ;
#107 = APPROVAL_DATE_TIME ( #108, #56 ) ;
#108 = DATE_AND_TIME ( #24, #49 ) ;
#109 = APPROVAL_ROLE ( '' ) ;
#110 = PERSON_AND_ORGANIZATION ( #84, #42 ) ;
#111 = PERSON_AND_ORGANIZATION ( #84, #42 ) ;
#112 = DATE_TIME_ROLE ( 'creation_date' ) ;
#113 = DATE_AND_TIME ( #31, #58 ) ;
#114 = PERSON_AND_ORGANIZATION_ROLE ( 'creator' ) ;
#115 = APPROVAL_DATE_TIME ( #94, #74 ) ;
#116 = APPROVAL_STATUS ( 'not_yet_approved' ) ;
#117 = PERSON_AND_ORGANIZATION_ROLE ( 'design_supplier' ) ;
#118 = PERSON_AND_ORGANIZATION_ROLE ( 'classification_officer' ) ;
#119 = PERSON_AND_ORGANIZATION ( #84, #42 ) ;
#120 = DATE_AND_TIME ( #21, #76 ) ;
#121 = SECURITY_CLASSIFICATION_LEVEL ( 'unclassified' ) ;
#122 = APPROVAL_DATE_TIME ( #123, #61 ) ;
#123 = DATE_AND_TIME ( #20, #80 ) ;
#124 = APPROVAL_ROLE ( '' ) ;
#125 = APPROVAL_STATUS ( 'not_yet_approved' ) ;
#126 = DATE_TIME_ROLE ( 'classification_date' ) ;
#127 = PERSON_AND_ORGANIZATION ( #84, #42 ) ;
#128 = CARTESIAN_POINT ( 'NONE',  ( 0.0000000000000000000, 0.0000000000000000000, 0.0000000000000000000 ) ) ;
#129 = DIRECTION ( 'NONE',  ( 0.0000000000000000000, 0.0000000000000000000, 1.000000000000000000 ) ) ;
#130 = CARTESIAN_POINT ( 'NONE',  ( -17.50000000000000400, 7.499999999999998200, 500.0000000000000000 ) ) ;
#131 = DIRECTION ( 'NONE',  ( -0.0000000000000000000, 0.0000000000000000000, 1.000000000000000000 ) ) ;
#132 = PLANE ( 'NONE',  #8 ) ;
#133 = DIRECTION ( 'NONE',  ( 1.000000000000000000, 0.0000000000000000000, 0.0000000000000000000 ) ) ;
#134 = DIRECTION ( 'NONE',  ( 0.0000000000000000000, -0.0000000000000000000, -1.000000000000000000 ) ) ;
#135 = DIRECTION ( 'NONE',  ( 0.0000000000000000000, -1.000000000000000000, 0.0000000000000000000 ) ) ;
#136 = CARTESIAN_POINT ( 'NONE',  ( -17.50000000000000400, 7.499999999999998200, 500.0000000000000000 ) ) ;
#137 = DIRECTION ( 'NONE',  ( 0.0000000000000000000, -0.0000000000000000000, 1.000000000000000000 ) ) ;
#138 = CARTESIAN_POINT ( 'NONE',  ( 0.0000000000000000000, 0.0000000000000000000, 500.0000000000000000 ) ) ;
#139 = DIRECTION ( 'NONE',  ( 0.0000000000000000000, 1.000000000000000000, 0.0000000000000000000 ) ) ;
#140 = CARTESIAN_POINT ( 'NONE',  ( -17.50000000000000000, -7.500000000000001800, 500.0000000000000000 ) ) ;
#141 = CARTESIAN_POINT ( 'NONE',  ( 17.49999999999999600, -7.500000000000001800, -500.0000000000000000 ) ) ;
#142 = PLANE ( 'NONE',  #29 ) ;
#143 = CARTESIAN_POINT ( 'NONE',  ( 17.49999999999999600, 7.499999999999998200, 500.0000000000000000 ) ) ;
#144 = CARTESIAN_POINT ( 'NONE',  ( 17.49999999999999600, 7.499999999999998200, -500.0000000000000000 ) ) ;
#145 = CARTESIAN_POINT ( 'NONE',  ( 17.49999999999999600, -7.500000000000001800, 500.0000000000000000 ) ) ;
#146 = CARTESIAN_POINT ( 'NONE',  ( -17.50000000000000000, -7.500000000000001800, 500.0000000000000000 ) ) ;
#147 = CARTESIAN_POINT ( 'NONE',  ( -17.50000000000000400, 7.499999999999998200, -500.0000000000000000 ) ) ;
#148 = CARTESIAN_POINT ( 'NONE',  ( -17.50000000000000400, 7.499999999999998200, 500.0000000000000000 ) ) ;
#149 = CARTESIAN_POINT ( 'NONE',  ( -17.50000000000000000, -7.500000000000001800, -500.0000000000000000 ) ) ;
#150 =( LENGTH_UNIT ( ) NAMED_UNIT ( * ) SI_UNIT ( .MILLI., .METRE. ) );
#151 = PERSON_AND_ORGANIZATION ( #84, #42 ) ;
#152 = PRODUCT ( 'sone3D', 'sone3D', '', ( #101 ) ) ;
#153 = VERTEX_POINT ( 'NONE', #130 ) ;
#154 = VERTEX_POINT ( 'NONE', #147 ) ;
#155 = VERTEX_POINT ( 'NONE', #146 ) ;
#156 = VERTEX_POINT ( 'NONE', #149 ) ;
#157 = VERTEX_POINT ( 'NONE', #145 ) ;
#158 = VERTEX_POINT ( 'NONE', #144 ) ;
#159 = VERTEX_POINT ( 'NONE', #143 ) ;
#160 = VERTEX_POINT ( 'NONE', #141 ) ;
#161 = ORIENTED_EDGE ( 'NONE', *, *, #51, .T. ) ;
#162 = ORIENTED_EDGE ( 'NONE', *, *, #57, .T. ) ;
#163 = ORIENTED_EDGE ( 'NONE', *, *, #50, .F. ) ;
#164 = ORIENTED_EDGE ( 'NONE', *, *, #62, .F. ) ;
#165 = ORIENTED_EDGE ( 'NONE', *, *, #60, .T. ) ;
#166 = ORIENTED_EDGE ( 'NONE', *, *, #55, .T. ) ;
#167 = ORIENTED_EDGE ( 'NONE', *, *, #60, .F. ) ;
#168 = ORIENTED_EDGE ( 'NONE', *, *, #59, .T. ) ;
#169 = ORIENTED_EDGE ( 'NONE', *, *, #62, .T. ) ;
#170 = ORIENTED_EDGE ( 'NONE', *, *, #57, .F. ) ;
#171 = ORIENTED_EDGE ( 'NONE', *, *, #48, .T. ) ;
#172 = ORIENTED_EDGE ( 'NONE', *, *, #65, .F. ) ;
#173 = ORIENTED_EDGE ( 'NONE', *, *, #70, .T. ) ;
#174 = ORIENTED_EDGE ( 'NONE', *, *, #73, .T. ) ;
#175 = ORIENTED_EDGE ( 'NONE', *, *, #55, .F. ) ;
#176 = ORIENTED_EDGE ( 'NONE', *, *, #48, .F. ) ;
#177 = ORIENTED_EDGE ( 'NONE', *, *, #65, .T. ) ;
#178 = ORIENTED_EDGE ( 'NONE', *, *, #59, .F. ) ;
#179 = ORIENTED_EDGE ( 'NONE', *, *, #51, .F. ) ;
#180 = ORIENTED_EDGE ( 'NONE', *, *, #70, .F. ) ;
#181 = ORIENTED_EDGE ( 'NONE', *, *, #50, .T. ) ;
#182 = ORIENTED_EDGE ( 'NONE', *, *, #47, .T. ) ;
#183 = ORIENTED_EDGE ( 'NONE', *, *, #47, .F. ) ;
#184 = ORIENTED_EDGE ( 'NONE', *, *, #73, .F. ) ;
#185 = EDGE_LOOP ( 'NONE', ( #180, #179, #175, #167 ) ) ;
#186 = EDGE_LOOP ( 'NONE', ( #174, #177, #181, #171 ) ) ;
#187 = EDGE_LOOP ( 'NONE', ( #161, #183, #176, #169 ) ) ;
#188 = EDGE_LOOP ( 'NONE', ( #173, #178, #184, #182 ) ) ;
#189 = EDGE_LOOP ( 'NONE', ( #166, #164, #163, #162 ) ) ;
#190 = EDGE_LOOP ( 'NONE', ( #165, #170, #172, #168 ) ) ;
#191 = LINE ( 'NONE', #192, #7 ) ;
#192 = CARTESIAN_POINT ( 'NONE',  ( -17.50000000000000400, 7.499999999999998200, 500.0000000000000000 ) ) ;
#193 = DIRECTION ( 'NONE',  ( -0.0000000000000000000, -0.0000000000000000000, -1.000000000000000000 ) ) ;
#194 = PLANE ( 'NONE',  #30 ) ;
#195 = LINE ( 'NONE', #196, #5 ) ;
#196 = CARTESIAN_POINT ( 'NONE',  ( -17.50000000000000400, 7.499999999999998200, 500.0000000000000000 ) ) ;
#197 = DIRECTION ( 'NONE',  ( -1.000000000000000000, -0.0000000000000000000, -0.0000000000000000000 ) ) ;
#198 = LINE ( 'NONE', #199, #1 ) ;
#199 = CARTESIAN_POINT ( 'NONE',  ( 17.49999999999999600, 7.499999999999998200, 500.0000000000000000 ) ) ;
#200 = DIRECTION ( 'NONE',  ( -0.0000000000000000000, 1.000000000000000000, -0.0000000000000000000 ) ) ;
#201 = LINE ( 'NONE', #202, #36 ) ;
#202 = CARTESIAN_POINT ( 'NONE',  ( -17.50000000000000400, 7.499999999999998200, -500.0000000000000000 ) ) ;
#203 = DIRECTION ( 'NONE',  ( -1.000000000000000000, -0.0000000000000000000, -0.0000000000000000000 ) ) ;
#204 = CARTESIAN_POINT ( 'NONE',  ( -17.50000000000000400, 7.499999999999998200, 500.0000000000000000 ) ) ;
#205 = DIRECTION ( 'NONE',  ( 1.000000000000000000, 2.312964634635743000E-016, -0.0000000000000000000 ) ) ;
#206 = DIRECTION ( 'NONE',  ( -2.312964634635743000E-016, 1.000000000000000000, 0.0000000000000000000 ) ) ;
#207 = LINE ( 'NONE', #208, #46 ) ;
#208 = CARTESIAN_POINT ( 'NONE',  ( 17.49999999999999600, 7.499999999999998200, -500.0000000000000000 ) ) ;
#209 = DIRECTION ( 'NONE',  ( -0.0000000000000000000, 1.000000000000000000, -0.0000000000000000000 ) ) ;
#210 = PLANE ( 'NONE',  #40 ) ;
#211 = LINE ( 'NONE', #212, #10 ) ;
#212 = CARTESIAN_POINT ( 'NONE',  ( 17.49999999999999600, -7.500000000000001800, 500.0000000000000000 ) ) ;
#213 = DIRECTION ( 'NONE',  ( -0.0000000000000000000, -0.0000000000000000000, -1.000000000000000000 ) ) ;
#214 = LINE ( 'NONE', #215, #19 ) ;
#215 = CARTESIAN_POINT ( 'NONE',  ( -17.50000000000000000, -7.500000000000001800, 500.0000000000000000 ) ) ;
#216 = DIRECTION ( 'NONE',  ( -0.0000000000000000000, -0.0000000000000000000, -1.000000000000000000 ) ) ;
#217 = LINE ( 'NONE', #218, #44 ) ;
#218 = CARTESIAN_POINT ( 'NONE',  ( -17.50000000000000000, -7.500000000000001800, -500.0000000000000000 ) ) ;
#219 = DIRECTION ( 'NONE',  ( 1.000000000000000000, 0.0000000000000000000, 0.0000000000000000000 ) ) ;
#220 = LINE ( 'NONE', #228, #45 ) ;
#221 = DIRECTION ( 'NONE',  ( -0.0000000000000000000, 0.0000000000000000000, 1.000000000000000000 ) ) ;
#222 = CARTESIAN_POINT ( 'NONE',  ( -17.50000000000000000, -7.500000000000001800, 500.0000000000000000 ) ) ;
#223 = DIRECTION ( 'NONE',  ( 1.000000000000000000, 0.0000000000000000000, 0.0000000000000000000 ) ) ;
#224 = DIRECTION ( 'NONE',  ( 1.000000000000000000, 0.0000000000000000000, 0.0000000000000000000 ) ) ;
#225 = LINE ( 'NONE', #222, #16 ) ;
#226 = DIRECTION ( 'NONE',  ( -0.0000000000000000000, -0.0000000000000000000, -1.000000000000000000 ) ) ;
#227 = CARTESIAN_POINT ( 'NONE',  ( 0.0000000000000000000, 0.0000000000000000000, -500.0000000000000000 ) ) ;
#228 = CARTESIAN_POINT ( 'NONE',  ( 17.49999999999999600, 7.499999999999998200, 500.0000000000000000 ) ) ;
#229 = CARTESIAN_POINT ( 'NONE',  ( 17.49999999999999600, 7.499999999999998200, 500.0000000000000000 ) ) ;
#230 = CARTESIAN_POINT ( 'NONE',  ( -17.50000000000000400, 7.499999999999998200, -500.0000000000000000 ) ) ;
#231 = LINE ( 'NONE', #230, #15 ) ;
#232 = PLANE ( 'NONE',  #43 ) ;
#233 = PLANE ( 'NONE',  #37 ) ;
#234 = DIRECTION ( 'NONE',  ( -1.000000000000000000, 0.0000000000000000000, 0.0000000000000000000 ) ) ;
#235 = DIRECTION ( 'NONE',  ( 0.0000000000000000000, 0.0000000000000000000, 1.000000000000000000 ) ) ;
#236 = DIRECTION ( 'NONE',  ( 2.312964634635743000E-016, -1.000000000000000000, 0.0000000000000000000 ) ) ;
#237 = LINE ( 'NONE', #148, #14 ) ;
ENDSEC;
END-ISO-10303-21;
