ISO-10303-21;
HEADER;
FILE_DESCRIPTION (( 'STEP AP203' ),
    '1' );
FILE_NAME ('sone3D.STEP',
    '2015-08-11T10:27:13',
    ( '' ),
    ( '' ),
    'SwSTEP 2.0',
    'SolidWorks 2012',
    '' );
FILE_SCHEMA (( 'CONFIG_CONTROL_DESIGN' ));
ENDSEC;

DATA;
#1 = VECTOR ( 'NONE', #145, 1000.000000000000000 ) ;
#2 = VECTOR ( 'NONE', #173, 1000.000000000000000 ) ;
#3 = AXIS2_PLACEMENT_3D ( 'NONE', #205, #202, #204 ) ;
#4 = CLOSED_SHELL ( 'NONE', ( #47, #58, #67, #71, #61, #53 ) ) ;
#5 = VECTOR ( 'NONE', #142, 1000.000000000000000 ) ;
#6 = COORDINATED_UNIVERSAL_TIME_OFFSET ( 9, 0, .AHEAD. ) ;
#7 = CALENDAR_DATE ( 2015, 11, 8 ) ;
#8 = CC_DESIGN_SECURITY_CLASSIFICATION ( #25, ( #32 ) ) ;
#9 = COORDINATED_UNIVERSAL_TIME_OFFSET ( 9, 0, .AHEAD. ) ;
#10 = AXIS2_PLACEMENT_3D ( 'NONE', #146, #147, #148 ) ;
#11 = APPROVAL_PERSON_ORGANIZATION ( #224, #80, #218 ) ;
#12 = CALENDAR_DATE ( 2015, 11, 8 ) ;
#13 = AXIS2_PLACEMENT_3D ( 'NONE', #198, #190, #193 ) ;
#14 = VECTOR ( 'NONE', #153, 1000.000000000000000 ) ;
#15 = APPROVAL_PERSON_ORGANIZATION ( #209, #66, #211 ) ;
#16 = CALENDAR_DATE ( 2015, 11, 8 ) ;
#17 = CC_DESIGN_APPROVAL ( #80, ( #32 ) ) ;
#18 = FACE_OUTER_BOUND ( 'NONE', #125, .T. ) ;
#19 = COORDINATED_UNIVERSAL_TIME_OFFSET ( 9, 0, .AHEAD. ) ;
#20 = ORGANIZATION ( 'UNSPECIFIED', 'UNSPECIFIED', '' ) ;
#21 = CALENDAR_DATE ( 2015, 11, 8 ) ;
#22 = FACE_OUTER_BOUND ( 'NONE', #128, .T. ) ;
#23 = COORDINATED_UNIVERSAL_TIME_OFFSET ( 9, 0, .AHEAD. ) ;
#24 = VECTOR ( 'NONE', #197, 1000.000000000000000 ) ;
#25 = SECURITY_CLASSIFICATION ( '', '', #227 ) ;
#26 = VECTOR ( 'NONE', #135, 1000.000000000000000 ) ;
#27 = AXIS2_PLACEMENT_3D ( 'NONE', #180, #182, #177 ) ;
#28 = VECTOR ( 'NONE', #181, 1000.000000000000000 ) ;
#29 = AXIS2_PLACEMENT_3D ( 'NONE', #154, #155, #156 ) ;
#30 = COORDINATED_UNIVERSAL_TIME_OFFSET ( 9, 0, .AHEAD. ) ;
#31 = VECTOR ( 'NONE', #172, 1000.000000000000000 ) ;
#32 = PRODUCT_DEFINITION_FORMATION_WITH_SPECIFIED_SOURCE ( 'ANY', '', #91, .NOT_KNOWN. ) ;
#33 = AXIS2_PLACEMENT_3D ( 'NONE', #122, #131, #132 ) ;
#34 = VECTOR ( 'NONE', #151, 1000.000000000000000 ) ;
#35 = CC_DESIGN_APPROVAL ( #69, ( #25 ) ) ;
#36 = FACE_OUTER_BOUND ( 'NONE', #127, .T. ) ;
#37 = VECTOR ( 'NONE', #165, 1000.000000000000000 ) ;
#38 = APPROVAL_PERSON_ORGANIZATION ( #233, #69, #237 ) ;
#39 = FACE_OUTER_BOUND ( 'NONE', #126, .T. ) ;
#40 = AXIS2_PLACEMENT_3D ( 'NONE', #160, #169, #167 ) ;
#41 = CC_DESIGN_APPROVAL ( #66, ( #55 ) ) ;
#42 = FACE_OUTER_BOUND ( 'NONE', #124, .T. ) ;
#43 = VECTOR ( 'NONE', #139, 1000.000000000000000 ) ;
#44 = CALENDAR_DATE ( 2015, 11, 8 ) ;
#45 = VECTOR ( 'NONE', #159, 1000.000000000000000 ) ;
#46 = FACE_OUTER_BOUND ( 'NONE', #129, .T. ) ;
#47 = ADVANCED_FACE ( 'NONE', ( #36 ), #130, .F. ) ;
#48 = EDGE_CURVE ( 'NONE', #95, #158, #133, .T. ) ;
#49 = EDGE_CURVE ( 'NONE', #113, #161, #137, .T. ) ;
#50 = CC_DESIGN_DATE_AND_TIME_ASSIGNMENT ( #214, #217, ( #55 ) ) ;
#51 = EDGE_CURVE ( 'NONE', #96, #158, #140, .T. ) ;
#52 = EDGE_CURVE ( 'NONE', #95, #175, #143, .T. ) ;
#53 = ADVANCED_FACE ( 'NONE', ( #42 ), #136, .F. ) ;
#54 = EDGE_CURVE ( 'NONE', #175, #93, #149, .T. ) ;
#55 = PRODUCT_DEFINITION ( 'UNKNOWN', '', #32, #86 ) ;
#56 = EDGE_CURVE ( 'NONE', #93, #94, #152, .T. ) ;
#57 = CC_DESIGN_PERSON_AND_ORGANIZATION_ASSIGNMENT ( #223, #222, ( #32 ) ) ;
#58 = ADVANCED_FACE ( 'NONE', ( #46 ), #92, .F. ) ;
#59 = EDGE_CURVE ( 'NONE', #161, #96, #166, .T. ) ;
#60 = EDGE_CURVE ( 'NONE', #175, #113, #162, .T. ) ;
#61 = ADVANCED_FACE ( 'NONE', ( #39 ), #157, .T. ) ;
#62 = EDGE_CURVE ( 'NONE', #94, #96, #170, .T. ) ;
#63 = EDGE_CURVE ( 'NONE', #158, #93, #174, .T. ) ;
#64 = CC_DESIGN_PERSON_AND_ORGANIZATION_ASSIGNMENT ( #212, #208, ( #91 ) ) ;
#65 = EDGE_CURVE ( 'NONE', #113, #94, #179, .T. ) ;
#66 = APPROVAL ( #216, 'UNSPECIFIED' ) ;
#67 = ADVANCED_FACE ( 'NONE', ( #22 ), #176, .F. ) ;
#68 = EDGE_CURVE ( 'NONE', #161, #95, #178, .T. ) ;
#69 = APPROVAL ( #232, 'UNSPECIFIED' ) ;
#70 = LOCAL_TIME ( 19, 27, 13.00000000000000000, #6 ) ;
#71 = ADVANCED_FACE ( 'NONE', ( #18 ), #196, .F. ) ;
#72 = CC_DESIGN_PERSON_AND_ORGANIZATION_ASSIGNMENT ( #225, #231, ( #32 ) ) ;
#73 = CC_DESIGN_DATE_AND_TIME_ASSIGNMENT ( #236, #228, ( #25 ) ) ;
#74 = LOCAL_TIME ( 19, 27, 13.00000000000000000, #9 ) ;
#75 = LOCAL_TIME ( 19, 27, 13.00000000000000000, #30 ) ;
#76 = PRODUCT_RELATED_PRODUCT_CATEGORY ( 'detail', '', ( #91 ) ) ;
#77 = CC_DESIGN_PERSON_AND_ORGANIZATION_ASSIGNMENT ( #226, #230, ( #25 ) ) ;
#78 = LOCAL_TIME ( 19, 27, 13.00000000000000000, #23 ) ;
#79 = LOCAL_TIME ( 19, 27, 13.00000000000000000, #19 ) ;
#80 = APPROVAL ( #219, 'UNSPECIFIED' ) ;
#81 = CC_DESIGN_PERSON_AND_ORGANIZATION_ASSIGNMENT ( #220, #215, ( #55 ) ) ;
#82 = APPLICATION_CONTEXT ( 'configuration controlled 3d designs of mechanical parts and assemblies' ) ;
#83 = APPLICATION_CONTEXT ( 'configuration controlled 3d designs of mechanical parts and assemblies' ) ;
#84 =( GEOMETRIC_REPRESENTATION_CONTEXT ( 3 ) GLOBAL_UNCERTAINTY_ASSIGNED_CONTEXT ( ( #88 ) ) GLOBAL_UNIT_ASSIGNED_CONTEXT ( ( #187, #199, #201 ) ) REPRESENTATION_CONTEXT ( 'NONE', 'WORKASPACE' ) );
#85 = MANIFOLD_SOLID_BREP ( 'ÎÞ½ - µoµ1', #4 ) ;
#86 = DESIGN_CONTEXT ( 'detailed design', #82, 'design' ) ;
#87 = PRODUCT_DEFINITION_SHAPE ( 'NONE', 'NONE',  #55 ) ;
#88 = UNCERTAINTY_MEASURE_WITH_UNIT (LENGTH_MEASURE( 1.000000000000000100E-005 ), #187, 'distance_accuracy_value', 'NONE');
#89 = ADVANCED_BREP_SHAPE_REPRESENTATION ( 'sone3D', ( #85, #3 ), #84 ) ;
#90 = PERSON ( 'UNSPECIFIED', 'UNSPECIFIED', 'UNSPECIFIED', ('UNSPECIFIED'), ('UNSPECIFIED'), ('UNSPECIFIED') ) ;
#91 = PRODUCT ( 'sone3D', 'sone3D', '', ( #206 ) ) ;
#92 = PLANE ( 'NONE',  #29 ) ;
#93 = VERTEX_POINT ( 'NONE', #192 ) ;
#94 = VERTEX_POINT ( 'NONE', #195 ) ;
#95 = VERTEX_POINT ( 'NONE', #186 ) ;
#96 = VERTEX_POINT ( 'NONE', #189 ) ;
#97 = ORIENTED_EDGE ( 'NONE', *, *, #51, .T. ) ;
#98 = ORIENTED_EDGE ( 'NONE', *, *, #65, .T. ) ;
#99 = ORIENTED_EDGE ( 'NONE', *, *, #52, .F. ) ;
#100 = ORIENTED_EDGE ( 'NONE', *, *, #49, .F. ) ;
#101 = ORIENTED_EDGE ( 'NONE', *, *, #59, .F. ) ;
#102 = CARTESIAN_POINT ( 'NONE',  ( -15.00000000000000200, -7.500000000000001800, -500.0000000000000000 ) ) ;
#103 = ORIENTED_EDGE ( 'NONE', *, *, #60, .T. ) ;
#104 = ORIENTED_EDGE ( 'NONE', *, *, #56, .T. ) ;
#105 = ORIENTED_EDGE ( 'NONE', *, *, #62, .T. ) ;
#106 = ORIENTED_EDGE ( 'NONE', *, *, #54, .T. ) ;
#107 = ORIENTED_EDGE ( 'NONE', *, *, #68, .T. ) ;
#108 = ORIENTED_EDGE ( 'NONE', *, *, #65, .F. ) ;
#109 = ORIENTED_EDGE ( 'NONE', *, *, #59, .T. ) ;
#110 = ORIENTED_EDGE ( 'NONE', *, *, #63, .F. ) ;
#111 = ORIENTED_EDGE ( 'NONE', *, *, #60, .F. ) ;
#112 = ORIENTED_EDGE ( 'NONE', *, *, #68, .F. ) ;
#113 = VERTEX_POINT ( 'NONE', #188 ) ;
#114 = ORIENTED_EDGE ( 'NONE', *, *, #62, .F. ) ;
#115 = ORIENTED_EDGE ( 'NONE', *, *, #48, .F. ) ;
#116 = ORIENTED_EDGE ( 'NONE', *, *, #63, .T. ) ;
#117 = ORIENTED_EDGE ( 'NONE', *, *, #51, .F. ) ;
#118 = ORIENTED_EDGE ( 'NONE', *, *, #49, .T. ) ;
#119 = ORIENTED_EDGE ( 'NONE', *, *, #56, .F. ) ;
#120 = ORIENTED_EDGE ( 'NONE', *, *, #52, .T. ) ;
#121 = ORIENTED_EDGE ( 'NONE', *, *, #54, .F. ) ;
#122 = CARTESIAN_POINT ( 'NONE',  ( -15.00000000000000500, 7.499999999999998200, 500.0000000000000000 ) ) ;
#123 = ORIENTED_EDGE ( 'NONE', *, *, #48, .T. ) ;
#124 = EDGE_LOOP ( 'NONE', ( #110, #117, #114, #119 ) ) ;
#125 = EDGE_LOOP ( 'NONE', ( #97, #115, #112, #109 ) ) ;
#126 = EDGE_LOOP ( 'NONE', ( #120, #103, #118, #107 ) ) ;
#127 = EDGE_LOOP ( 'NONE', ( #116, #121, #99, #123 ) ) ;
#128 = EDGE_LOOP ( 'NONE', ( #105, #101, #100, #98 ) ) ;
#129 = EDGE_LOOP ( 'NONE', ( #104, #108, #111, #106 ) ) ;
#130 = PLANE ( 'NONE',  #33 ) ;
#131 = DIRECTION ( 'NONE',  ( 1.000000000000000000, 2.312964634635743000E-016, -0.0000000000000000000 ) ) ;
#132 = DIRECTION ( 'NONE',  ( -2.312964634635743000E-016, 1.000000000000000000, 0.0000000000000000000 ) ) ;
#133 = LINE ( 'NONE', #134, #26 ) ;
#134 = CARTESIAN_POINT ( 'NONE',  ( -15.00000000000000500, 7.499999999999998200, 500.0000000000000000 ) ) ;
#135 = DIRECTION ( 'NONE',  ( -0.0000000000000000000, -0.0000000000000000000, -1.000000000000000000 ) ) ;
#136 = PLANE ( 'NONE',  #10 ) ;
#137 = LINE ( 'NONE', #138, #43 ) ;
#138 = CARTESIAN_POINT ( 'NONE',  ( 14.99999999999999300, 7.499999999999998200, 500.0000000000000000 ) ) ;
#139 = DIRECTION ( 'NONE',  ( -2.312964634635743000E-016, 1.000000000000000000, -0.0000000000000000000 ) ) ;
#140 = LINE ( 'NONE', #141, #5 ) ;
#141 = CARTESIAN_POINT ( 'NONE',  ( -15.00000000000000500, 7.499999999999998200, -500.0000000000000000 ) ) ;
#142 = DIRECTION ( 'NONE',  ( -1.000000000000000000, -0.0000000000000000000, -0.0000000000000000000 ) ) ;
#143 = LINE ( 'NONE', #144, #1 ) ;
#144 = CARTESIAN_POINT ( 'NONE',  ( -15.00000000000000500, 7.499999999999998200, 500.0000000000000000 ) ) ;
#145 = DIRECTION ( 'NONE',  ( 2.312964634635743000E-016, -1.000000000000000000, 0.0000000000000000000 ) ) ;
#146 = CARTESIAN_POINT ( 'NONE',  ( 0.0000000000000000000, 0.0000000000000000000, -500.0000000000000000 ) ) ;
#147 = DIRECTION ( 'NONE',  ( -0.0000000000000000000, 0.0000000000000000000, 1.000000000000000000 ) ) ;
#148 = DIRECTION ( 'NONE',  ( 1.000000000000000000, 0.0000000000000000000, 0.0000000000000000000 ) ) ;
#149 = LINE ( 'NONE', #150, #34 ) ;
#150 = CARTESIAN_POINT ( 'NONE',  ( -15.00000000000000200, -7.500000000000001800, 500.0000000000000000 ) ) ;
#151 = DIRECTION ( 'NONE',  ( -0.0000000000000000000, -0.0000000000000000000, -1.000000000000000000 ) ) ;
#152 = LINE ( 'NONE', #102, #14 ) ;
#153 = DIRECTION ( 'NONE',  ( 1.000000000000000000, 0.0000000000000000000, 0.0000000000000000000 ) ) ;
#154 = CARTESIAN_POINT ( 'NONE',  ( -15.00000000000000200, -7.500000000000001800, 500.0000000000000000 ) ) ;
#155 = DIRECTION ( 'NONE',  ( 0.0000000000000000000, 1.000000000000000000, 0.0000000000000000000 ) ) ;
#156 = DIRECTION ( 'NONE',  ( 0.0000000000000000000, -0.0000000000000000000, 1.000000000000000000 ) ) ;
#157 = PLANE ( 'NONE',  #40 ) ;
#158 = VERTEX_POINT ( 'NONE', #191 ) ;
#159 = DIRECTION ( 'NONE',  ( 1.000000000000000000, 0.0000000000000000000, 0.0000000000000000000 ) ) ;
#160 = CARTESIAN_POINT ( 'NONE',  ( 0.0000000000000000000, 0.0000000000000000000, 500.0000000000000000 ) ) ;
#161 = VERTEX_POINT ( 'NONE', #185 ) ;
#162 = LINE ( 'NONE', #163, #45 ) ;
#163 = CARTESIAN_POINT ( 'NONE',  ( -15.00000000000000200, -7.500000000000001800, 500.0000000000000000 ) ) ;
#164 = CARTESIAN_POINT ( 'NONE',  ( 14.99999999999999300, 7.499999999999998200, 500.0000000000000000 ) ) ;
#165 = DIRECTION ( 'NONE',  ( -0.0000000000000000000, -0.0000000000000000000, -1.000000000000000000 ) ) ;
#166 = LINE ( 'NONE', #164, #37 ) ;
#167 = DIRECTION ( 'NONE',  ( 1.000000000000000000, 0.0000000000000000000, 0.0000000000000000000 ) ) ;
#168 = CARTESIAN_POINT ( 'NONE',  ( -15.00000000000000500, 7.499999999999998200, -500.0000000000000000 ) ) ;
#169 = DIRECTION ( 'NONE',  ( -0.0000000000000000000, 0.0000000000000000000, 1.000000000000000000 ) ) ;
#170 = LINE ( 'NONE', #171, #2 ) ;
#171 = CARTESIAN_POINT ( 'NONE',  ( 14.99999999999999300, 7.499999999999998200, -500.0000000000000000 ) ) ;
#172 = DIRECTION ( 'NONE',  ( 2.312964634635743000E-016, -1.000000000000000000, 0.0000000000000000000 ) ) ;
#173 = DIRECTION ( 'NONE',  ( -2.312964634635743000E-016, 1.000000000000000000, -0.0000000000000000000 ) ) ;
#174 = LINE ( 'NONE', #168, #31 ) ;
#175 = VERTEX_POINT ( 'NONE', #184 ) ;
#176 = PLANE ( 'NONE',  #27 ) ;
#177 = DIRECTION ( 'NONE',  ( 2.312964634635743000E-016, -1.000000000000000000, 0.0000000000000000000 ) ) ;
#178 = LINE ( 'NONE', #194, #24 ) ;
#179 = LINE ( 'NONE', #183, #28 ) ;
#180 = CARTESIAN_POINT ( 'NONE',  ( 14.99999999999999300, 7.499999999999998200, 500.0000000000000000 ) ) ;
#181 = DIRECTION ( 'NONE',  ( -0.0000000000000000000, -0.0000000000000000000, -1.000000000000000000 ) ) ;
#182 = DIRECTION ( 'NONE',  ( -1.000000000000000000, -2.312964634635743000E-016, 0.0000000000000000000 ) ) ;
#183 = CARTESIAN_POINT ( 'NONE',  ( 14.99999999999999600, -7.500000000000001800, 500.0000000000000000 ) ) ;
#184 = CARTESIAN_POINT ( 'NONE',  ( -15.00000000000000200, -7.500000000000001800, 500.0000000000000000 ) ) ;
#185 = CARTESIAN_POINT ( 'NONE',  ( 14.99999999999999300, 7.499999999999998200, 500.0000000000000000 ) ) ;
#186 = CARTESIAN_POINT ( 'NONE',  ( -15.00000000000000500, 7.499999999999998200, 500.0000000000000000 ) ) ;
#187 =( LENGTH_UNIT ( ) NAMED_UNIT ( * ) SI_UNIT ( .MILLI., .METRE. ) );
#188 = CARTESIAN_POINT ( 'NONE',  ( 14.99999999999999600, -7.500000000000001800, 500.0000000000000000 ) ) ;
#189 = CARTESIAN_POINT ( 'NONE',  ( 14.99999999999999300, 7.499999999999998200, -500.0000000000000000 ) ) ;
#190 = DIRECTION ( 'NONE',  ( 0.0000000000000000000, -1.000000000000000000, 0.0000000000000000000 ) ) ;
#191 = CARTESIAN_POINT ( 'NONE',  ( -15.00000000000000500, 7.499999999999998200, -500.0000000000000000 ) ) ;
#192 = CARTESIAN_POINT ( 'NONE',  ( -15.00000000000000200, -7.500000000000001800, -500.0000000000000000 ) ) ;
#193 = DIRECTION ( 'NONE',  ( 0.0000000000000000000, -0.0000000000000000000, -1.000000000000000000 ) ) ;
#194 = CARTESIAN_POINT ( 'NONE',  ( -15.00000000000000500, 7.499999999999998200, 500.0000000000000000 ) ) ;
#195 = CARTESIAN_POINT ( 'NONE',  ( 14.99999999999999600, -7.500000000000001800, -500.0000000000000000 ) ) ;
#196 = PLANE ( 'NONE',  #13 ) ;
#197 = DIRECTION ( 'NONE',  ( -1.000000000000000000, -0.0000000000000000000, -0.0000000000000000000 ) ) ;
#198 = CARTESIAN_POINT ( 'NONE',  ( -15.00000000000000500, 7.499999999999998200, 500.0000000000000000 ) ) ;
#199 =( NAMED_UNIT ( * ) PLANE_ANGLE_UNIT ( ) SI_UNIT ( $, .RADIAN. ) );
#200 = APPLICATION_PROTOCOL_DEFINITION ( 'international standard', 'config_control_design', 1994, #83 ) ;
#201 =( NAMED_UNIT ( * ) SI_UNIT ( $, .STERADIAN. ) SOLID_ANGLE_UNIT ( ) );
#202 = DIRECTION ( 'NONE',  ( 0.0000000000000000000, 0.0000000000000000000, 1.000000000000000000 ) ) ;
#203 = SHAPE_DEFINITION_REPRESENTATION ( #87, #89 ) ;
#204 = DIRECTION ( 'NONE',  ( 1.000000000000000000, 0.0000000000000000000, 0.0000000000000000000 ) ) ;
#205 = CARTESIAN_POINT ( 'NONE',  ( 0.0000000000000000000, 0.0000000000000000000, 0.0000000000000000000 ) ) ;
#206 = MECHANICAL_CONTEXT ( 'NONE', #83, 'mechanical' ) ;
#207 = APPLICATION_PROTOCOL_DEFINITION ( 'international standard', 'config_control_design', 1994, #82 ) ;
#208 = PERSON_AND_ORGANIZATION_ROLE ( 'design_owner' ) ;
#209 = PERSON_AND_ORGANIZATION ( #90, #20 ) ;
#210 = DATE_AND_TIME ( #16, #70 ) ;
#211 = APPROVAL_ROLE ( '' ) ;
#212 = PERSON_AND_ORGANIZATION ( #90, #20 ) ;
#213 = APPROVAL_DATE_TIME ( #210, #66 ) ;
#214 = DATE_AND_TIME ( #12, #78 ) ;
#215 = PERSON_AND_ORGANIZATION_ROLE ( 'creator' ) ;
#216 = APPROVAL_STATUS ( 'not_yet_approved' ) ;
#217 = DATE_TIME_ROLE ( 'creation_date' ) ;
#218 = APPROVAL_ROLE ( '' ) ;
#219 = APPROVAL_STATUS ( 'not_yet_approved' ) ;
#220 = PERSON_AND_ORGANIZATION ( #90, #20 ) ;
#221 = DATE_AND_TIME ( #7, #74 ) ;
#222 = PERSON_AND_ORGANIZATION_ROLE ( 'creator' ) ;
#223 = PERSON_AND_ORGANIZATION ( #90, #20 ) ;
#224 = PERSON_AND_ORGANIZATION ( #90, #20 ) ;
#225 = PERSON_AND_ORGANIZATION ( #90, #20 ) ;
#226 = PERSON_AND_ORGANIZATION ( #90, #20 ) ;
#227 = SECURITY_CLASSIFICATION_LEVEL ( 'unclassified' ) ;
#228 = DATE_TIME_ROLE ( 'classification_date' ) ;
#229 = APPROVAL_DATE_TIME ( #221, #80 ) ;
#230 = PERSON_AND_ORGANIZATION_ROLE ( 'classification_officer' ) ;
#231 = PERSON_AND_ORGANIZATION_ROLE ( 'design_supplier' ) ;
#232 = APPROVAL_STATUS ( 'not_yet_approved' ) ;
#233 = PERSON_AND_ORGANIZATION ( #90, #20 ) ;
#234 = APPROVAL_DATE_TIME ( #235, #69 ) ;
#235 = DATE_AND_TIME ( #44, #75 ) ;
#236 = DATE_AND_TIME ( #21, #79 ) ;
#237 = APPROVAL_ROLE ( '' ) ;
ENDSEC;
END-ISO-10303-21;
