ISO-10303-21;
HEADER;
FILE_DESCRIPTION (( 'STEP AP203' ),
    '1' );
FILE_NAME ('sone3D.STEP',
    '2015-08-11T10:26:54',
    ( '' ),
    ( '' ),
    'SwSTEP 2.0',
    'SolidWorks 2012',
    '' );
FILE_SCHEMA (( 'CONFIG_CONTROL_DESIGN' ));
ENDSEC;

DATA;
#1 = COORDINATED_UNIVERSAL_TIME_OFFSET ( 9, 0, .AHEAD. ) ;
#2 = VECTOR ( 'NONE', #187, 1000.000000000000000 ) ;
#3 = VECTOR ( 'NONE', #180, 1000.000000000000000 ) ;
#4 = COORDINATED_UNIVERSAL_TIME_OFFSET ( 9, 0, .AHEAD. ) ;
#5 = CC_DESIGN_SECURITY_CLASSIFICATION ( #21, ( #39 ) ) ;
#6 = CALENDAR_DATE ( 2015, 11, 8 ) ;
#7 = VECTOR ( 'NONE', #199, 1000.000000000000000 ) ;
#8 = FACE_OUTER_BOUND ( 'NONE', #163, .T. ) ;
#9 = VECTOR ( 'NONE', #172, 1000.000000000000000 ) ;
#10 = COORDINATED_UNIVERSAL_TIME_OFFSET ( 9, 0, .AHEAD. ) ;
#11 = CC_DESIGN_APPROVAL ( #47, ( #39 ) ) ;
#12 = AXIS2_PLACEMENT_3D ( 'NONE', #208, #218, #215 ) ;
#13 = VECTOR ( 'NONE', #184, 1000.000000000000000 ) ;
#14 = COORDINATED_UNIVERSAL_TIME_OFFSET ( 9, 0, .AHEAD. ) ;
#15 = FACE_OUTER_BOUND ( 'NONE', #159, .T. ) ;
#16 = AXIS2_PLACEMENT_3D ( 'NONE', #95, #107, #105 ) ;
#17 = CC_DESIGN_APPROVAL ( #77, ( #71 ) ) ;
#18 = FACE_OUTER_BOUND ( 'NONE', #155, .T. ) ;
#19 = CLOSED_SHELL ( 'NONE', ( #59, #61, #69, #66, #65, #64 ) ) ;
#20 = CC_DESIGN_APPROVAL ( #73, ( #21 ) ) ;
#21 = SECURITY_CLASSIFICATION ( '', '', #148 ) ;
#22 = VECTOR ( 'NONE', #213, 1000.000000000000000 ) ;
#23 = APPROVAL_PERSON_ORGANIZATION ( #130, #47, #122 ) ;
#24 = CALENDAR_DATE ( 2015, 11, 8 ) ;
#25 = AXIS2_PLACEMENT_3D ( 'NONE', #203, #235, #181 ) ;
#26 = FACE_OUTER_BOUND ( 'NONE', #158, .T. ) ;
#27 = COORDINATED_UNIVERSAL_TIME_OFFSET ( 9, 0, .AHEAD. ) ;
#28 = VECTOR ( 'NONE', #198, 1000.000000000000000 ) ;
#29 = VECTOR ( 'NONE', #193, 1000.000000000000000 ) ;
#30 = AXIS2_PLACEMENT_3D ( 'NONE', #197, #200, #204 ) ;
#31 = FACE_OUTER_BOUND ( 'NONE', #156, .T. ) ;
#32 = CALENDAR_DATE ( 2015, 11, 8 ) ;
#33 = VECTOR ( 'NONE', #227, 1000.000000000000000 ) ;
#34 = APPROVAL_PERSON_ORGANIZATION ( #139, #77, #143 ) ;
#35 = AXIS2_PLACEMENT_3D ( 'NONE', #201, #205, #217 ) ;
#36 = VECTOR ( 'NONE', #176, 1000.000000000000000 ) ;
#37 = FACE_OUTER_BOUND ( 'NONE', #168, .T. ) ;
#38 = AXIS2_PLACEMENT_3D ( 'NONE', #220, #222, #223 ) ;
#39 = PRODUCT_DEFINITION_FORMATION_WITH_SPECIFIED_SOURCE ( 'ANY', '', #91, .NOT_KNOWN. ) ;
#40 = VECTOR ( 'NONE', #196, 1000.000000000000000 ) ;
#41 = CALENDAR_DATE ( 2015, 11, 8 ) ;
#42 = APPROVAL_PERSON_ORGANIZATION ( #160, #73, #170 ) ;
#43 = CALENDAR_DATE ( 2015, 11, 8 ) ;
#44 = AXIS2_PLACEMENT_3D ( 'NONE', #236, #237, #221 ) ;
#45 = VECTOR ( 'NONE', #190, 1000.000000000000000 ) ;
#46 = ORGANIZATION ( 'UNSPECIFIED', 'UNSPECIFIED', '' ) ;
#47 = APPROVAL ( #129, 'UNSPECIFIED' ) ;
#48 = EDGE_CURVE ( 'NONE', #96, #93, #169, .T. ) ;
#49 = EDGE_CURVE ( 'NONE', #99, #109, #174, .T. ) ;
#50 = EDGE_CURVE ( 'NONE', #101, #93, #177, .T. ) ;
#51 = CC_DESIGN_PERSON_AND_ORGANIZATION_ASSIGNMENT ( #137, #136, ( #71 ) ) ;
#52 = EDGE_CURVE ( 'NONE', #93, #104, #182, .T. ) ;
#53 = LOCAL_TIME ( 19, 26, 54.00000000000000000, #14 ) ;
#54 = EDGE_CURVE ( 'NONE', #96, #106, #185, .T. ) ;
#55 = EDGE_CURVE ( 'NONE', #106, #104, #188, .T. ) ;
#56 = CC_DESIGN_PERSON_AND_ORGANIZATION_ASSIGNMENT ( #108, #162, ( #39 ) ) ;
#57 = EDGE_CURVE ( 'NONE', #104, #97, #191, .T. ) ;
#58 = EDGE_CURVE ( 'NONE', #109, #101, #194, .T. ) ;
#59 = ADVANCED_FACE ( 'NONE', ( #8 ), #173, .F. ) ;
#60 = PRODUCT_RELATED_PRODUCT_CATEGORY ( 'detail', '', ( #91 ) ) ;
#61 = ADVANCED_FACE ( 'NONE', ( #18 ), #206, .F. ) ;
#62 = EDGE_CURVE ( 'NONE', #106, #99, #216, .T. ) ;
#63 = EDGE_CURVE ( 'NONE', #97, #101, #211, .T. ) ;
#64 = ADVANCED_FACE ( 'NONE', ( #26 ), #214, .F. ) ;
#65 = ADVANCED_FACE ( 'NONE', ( #37 ), #234, .T. ) ;
#66 = ADVANCED_FACE ( 'NONE', ( #15 ), #224, .F. ) ;
#67 = CC_DESIGN_PERSON_AND_ORGANIZATION_ASSIGNMENT ( #102, #149, ( #91 ) ) ;
#68 = EDGE_CURVE ( 'NONE', #99, #97, #179, .T. ) ;
#69 = ADVANCED_FACE ( 'NONE', ( #31 ), #202, .F. ) ;
#70 = CC_DESIGN_PERSON_AND_ORGANIZATION_ASSIGNMENT ( #146, #151, ( #21 ) ) ;
#71 = PRODUCT_DEFINITION ( 'UNKNOWN', '', #39, #88 ) ;
#72 = LOCAL_TIME ( 19, 26, 54.00000000000000000, #1 ) ;
#73 = APPROVAL ( #164, 'UNSPECIFIED' ) ;
#74 = CC_DESIGN_DATE_AND_TIME_ASSIGNMENT ( #128, #127, ( #71 ) ) ;
#75 = EDGE_CURVE ( 'NONE', #109, #96, #209, .T. ) ;
#76 = LOCAL_TIME ( 19, 26, 54.00000000000000000, #27 ) ;
#77 = APPROVAL ( #144, 'UNSPECIFIED' ) ;
#78 = CC_DESIGN_DATE_AND_TIME_ASSIGNMENT ( #167, #161, ( #21 ) ) ;
#79 = LOCAL_TIME ( 19, 26, 54.00000000000000000, #4 ) ;
#80 = LOCAL_TIME ( 19, 26, 54.00000000000000000, #10 ) ;
#81 = CC_DESIGN_PERSON_AND_ORGANIZATION_ASSIGNMENT ( #124, #110, ( #39 ) ) ;
#82 = PERSON ( 'UNSPECIFIED', 'UNSPECIFIED', 'UNSPECIFIED', ('UNSPECIFIED'), ('UNSPECIFIED'), ('UNSPECIFIED') ) ;
#83 = ADVANCED_BREP_SHAPE_REPRESENTATION ( 'sone3D', ( #89, #16 ), #87 ) ;
#84 = UNCERTAINTY_MEASURE_WITH_UNIT (LENGTH_MEASURE( 1.000000000000000100E-005 ), #233, 'distance_accuracy_value', 'NONE');
#85 = APPLICATION_CONTEXT ( 'configuration controlled 3d designs of mechanical parts and assemblies' ) ;
#86 = APPLICATION_CONTEXT ( 'configuration controlled 3d designs of mechanical parts and assemblies' ) ;
#87 =( GEOMETRIC_REPRESENTATION_CONTEXT ( 3 ) GLOBAL_UNCERTAINTY_ASSIGNED_CONTEXT ( ( #84 ) ) GLOBAL_UNIT_ASSIGNED_CONTEXT ( ( #233, #92, #94 ) ) REPRESENTATION_CONTEXT ( 'NONE', 'WORKASPACE' ) );
#88 = DESIGN_CONTEXT ( 'detailed design', #86, 'design' ) ;
#89 = MANIFOLD_SOLID_BREP ( 'ÎÞ½ - µoµ1', #19 ) ;
#90 = PRODUCT_DEFINITION_SHAPE ( 'NONE', 'NONE',  #71 ) ;
#91 = PRODUCT ( 'sone3D', 'sone3D', '', ( #103 ) ) ;
#92 =( NAMED_UNIT ( * ) PLANE_ANGLE_UNIT ( ) SI_UNIT ( $, .RADIAN. ) );
#93 = VERTEX_POINT ( 'NONE', #226 ) ;
#94 =( NAMED_UNIT ( * ) SI_UNIT ( $, .STERADIAN. ) SOLID_ANGLE_UNIT ( ) );
#95 = CARTESIAN_POINT ( 'NONE',  ( 0.0000000000000000000, 0.0000000000000000000, 0.0000000000000000000 ) ) ;
#96 = VERTEX_POINT ( 'NONE', #225 ) ;
#97 = VERTEX_POINT ( 'NONE', #219 ) ;
#98 = SHAPE_DEFINITION_REPRESENTATION ( #90, #83 ) ;
#99 = VERTEX_POINT ( 'NONE', #228 ) ;
#100 = APPLICATION_PROTOCOL_DEFINITION ( 'international standard', 'config_control_design', 1994, #85 ) ;
#101 = VERTEX_POINT ( 'NONE', #230 ) ;
#102 = PERSON_AND_ORGANIZATION ( #82, #46 ) ;
#103 = MECHANICAL_CONTEXT ( 'NONE', #85, 'mechanical' ) ;
#104 = VERTEX_POINT ( 'NONE', #229 ) ;
#105 = DIRECTION ( 'NONE',  ( 1.000000000000000000, 0.0000000000000000000, 0.0000000000000000000 ) ) ;
#106 = VERTEX_POINT ( 'NONE', #231 ) ;
#107 = DIRECTION ( 'NONE',  ( 0.0000000000000000000, 0.0000000000000000000, 1.000000000000000000 ) ) ;
#108 = PERSON_AND_ORGANIZATION ( #82, #46 ) ;
#109 = VERTEX_POINT ( 'NONE', #232 ) ;
#110 = PERSON_AND_ORGANIZATION_ROLE ( 'creator' ) ;
#111 = ORIENTED_EDGE ( 'NONE', *, *, #50, .T. ) ;
#112 = ORIENTED_EDGE ( 'NONE', *, *, #68, .T. ) ;
#113 = ORIENTED_EDGE ( 'NONE', *, *, #49, .F. ) ;
#114 = ORIENTED_EDGE ( 'NONE', *, *, #58, .F. ) ;
#115 = ORIENTED_EDGE ( 'NONE', *, *, #57, .T. ) ;
#116 = ORIENTED_EDGE ( 'NONE', *, *, #63, .T. ) ;
#117 = ORIENTED_EDGE ( 'NONE', *, *, #55, .T. ) ;
#118 = ORIENTED_EDGE ( 'NONE', *, *, #68, .F. ) ;
#119 = ORIENTED_EDGE ( 'NONE', *, *, #62, .F. ) ;
#120 = DATE_AND_TIME ( #6, #80 ) ;
#121 = ORIENTED_EDGE ( 'NONE', *, *, #50, .F. ) ;
#122 = APPROVAL_ROLE ( '' ) ;
#123 = ORIENTED_EDGE ( 'NONE', *, *, #48, .F. ) ;
#124 = PERSON_AND_ORGANIZATION ( #82, #46 ) ;
#125 = APPROVAL_DATE_TIME ( #120, #47 ) ;
#126 = ORIENTED_EDGE ( 'NONE', *, *, #54, .T. ) ;
#127 = DATE_TIME_ROLE ( 'creation_date' ) ;
#128 = DATE_AND_TIME ( #41, #79 ) ;
#129 = APPROVAL_STATUS ( 'not_yet_approved' ) ;
#130 = PERSON_AND_ORGANIZATION ( #82, #46 ) ;
#131 = ORIENTED_EDGE ( 'NONE', *, *, #58, .T. ) ;
#132 = APPROVAL_DATE_TIME ( #134, #77 ) ;
#133 = ORIENTED_EDGE ( 'NONE', *, *, #52, .T. ) ;
#134 = DATE_AND_TIME ( #43, #72 ) ;
#135 = ORIENTED_EDGE ( 'NONE', *, *, #63, .F. ) ;
#136 = PERSON_AND_ORGANIZATION_ROLE ( 'creator' ) ;
#137 = PERSON_AND_ORGANIZATION ( #82, #46 ) ;
#138 = ORIENTED_EDGE ( 'NONE', *, *, #49, .T. ) ;
#139 = PERSON_AND_ORGANIZATION ( #82, #46 ) ;
#140 = APPLICATION_PROTOCOL_DEFINITION ( 'international standard', 'config_control_design', 1994, #86 ) ;
#141 = ORIENTED_EDGE ( 'NONE', *, *, #62, .T. ) ;
#142 = ORIENTED_EDGE ( 'NONE', *, *, #57, .F. ) ;
#143 = APPROVAL_ROLE ( '' ) ;
#144 = APPROVAL_STATUS ( 'not_yet_approved' ) ;
#145 = ORIENTED_EDGE ( 'NONE', *, *, #75, .F. ) ;
#146 = PERSON_AND_ORGANIZATION ( #82, #46 ) ;
#147 = ORIENTED_EDGE ( 'NONE', *, *, #54, .F. ) ;
#148 = SECURITY_CLASSIFICATION_LEVEL ( 'unclassified' ) ;
#149 = PERSON_AND_ORGANIZATION_ROLE ( 'design_owner' ) ;
#150 = ORIENTED_EDGE ( 'NONE', *, *, #48, .T. ) ;
#151 = PERSON_AND_ORGANIZATION_ROLE ( 'classification_officer' ) ;
#152 = ORIENTED_EDGE ( 'NONE', *, *, #75, .T. ) ;
#153 = ORIENTED_EDGE ( 'NONE', *, *, #55, .F. ) ;
#154 = ORIENTED_EDGE ( 'NONE', *, *, #52, .F. ) ;
#155 = EDGE_LOOP ( 'NONE', ( #115, #118, #119, #117 ) ) ;
#156 = EDGE_LOOP ( 'NONE', ( #116, #114, #113, #112 ) ) ;
#157 = CARTESIAN_POINT ( 'NONE',  ( 12.50000000000000000, -7.500000000000000900, 500.0000000000000000 ) ) ;
#158 = EDGE_LOOP ( 'NONE', ( #154, #121, #135, #142 ) ) ;
#159 = EDGE_LOOP ( 'NONE', ( #111, #123, #145, #131 ) ) ;
#160 = PERSON_AND_ORGANIZATION ( #82, #46 ) ;
#161 = DATE_TIME_ROLE ( 'classification_date' ) ;
#162 = PERSON_AND_ORGANIZATION_ROLE ( 'design_supplier' ) ;
#163 = EDGE_LOOP ( 'NONE', ( #133, #153, #147, #150 ) ) ;
#164 = APPROVAL_STATUS ( 'not_yet_approved' ) ;
#165 = APPROVAL_DATE_TIME ( #166, #73 ) ;
#166 = DATE_AND_TIME ( #32, #76 ) ;
#167 = DATE_AND_TIME ( #24, #53 ) ;
#168 = EDGE_LOOP ( 'NONE', ( #126, #141, #138, #152 ) ) ;
#169 = LINE ( 'NONE', #171, #9 ) ;
#170 = APPROVAL_ROLE ( '' ) ;
#171 = CARTESIAN_POINT ( 'NONE',  ( -12.50000000000000200, 7.499999999999999100, 500.0000000000000000 ) ) ;
#172 = DIRECTION ( 'NONE',  ( -0.0000000000000000000, -0.0000000000000000000, -1.000000000000000000 ) ) ;
#173 = PLANE ( 'NONE',  #30 ) ;
#174 = LINE ( 'NONE', #175, #36 ) ;
#175 = CARTESIAN_POINT ( 'NONE',  ( 12.49999999999999800, 7.499999999999999100, 500.0000000000000000 ) ) ;
#176 = DIRECTION ( 'NONE',  ( -1.156482317317871500E-016, 1.000000000000000000, -0.0000000000000000000 ) ) ;
#177 = LINE ( 'NONE', #178, #3 ) ;
#178 = CARTESIAN_POINT ( 'NONE',  ( -12.50000000000000200, 7.499999999999999100, -500.0000000000000000 ) ) ;
#179 = LINE ( 'NONE', #157, #28 ) ;
#180 = DIRECTION ( 'NONE',  ( -1.000000000000000000, -0.0000000000000000000, -0.0000000000000000000 ) ) ;
#181 = DIRECTION ( 'NONE',  ( 0.0000000000000000000, -0.0000000000000000000, -1.000000000000000000 ) ) ;
#182 = LINE ( 'NONE', #183, #13 ) ;
#183 = CARTESIAN_POINT ( 'NONE',  ( -12.50000000000000200, 7.499999999999999100, -500.0000000000000000 ) ) ;
#184 = DIRECTION ( 'NONE',  ( 1.156482317317871500E-016, -1.000000000000000000, 0.0000000000000000000 ) ) ;
#185 = LINE ( 'NONE', #186, #2 ) ;
#186 = CARTESIAN_POINT ( 'NONE',  ( -12.50000000000000200, 7.499999999999999100, 500.0000000000000000 ) ) ;
#187 = DIRECTION ( 'NONE',  ( 1.156482317317871500E-016, -1.000000000000000000, 0.0000000000000000000 ) ) ;
#188 = LINE ( 'NONE', #189, #45 ) ;
#189 = CARTESIAN_POINT ( 'NONE',  ( -12.50000000000000000, -7.500000000000000900, 500.0000000000000000 ) ) ;
#190 = DIRECTION ( 'NONE',  ( -0.0000000000000000000, -0.0000000000000000000, -1.000000000000000000 ) ) ;
#191 = LINE ( 'NONE', #192, #29 ) ;
#192 = CARTESIAN_POINT ( 'NONE',  ( -12.50000000000000000, -7.500000000000000900, -500.0000000000000000 ) ) ;
#193 = DIRECTION ( 'NONE',  ( 1.000000000000000000, 0.0000000000000000000, 0.0000000000000000000 ) ) ;
#194 = LINE ( 'NONE', #195, #40 ) ;
#195 = CARTESIAN_POINT ( 'NONE',  ( 12.49999999999999800, 7.499999999999999100, 500.0000000000000000 ) ) ;
#196 = DIRECTION ( 'NONE',  ( -0.0000000000000000000, -0.0000000000000000000, -1.000000000000000000 ) ) ;
#197 = CARTESIAN_POINT ( 'NONE',  ( -12.50000000000000200, 7.499999999999999100, 500.0000000000000000 ) ) ;
#198 = DIRECTION ( 'NONE',  ( -0.0000000000000000000, -0.0000000000000000000, -1.000000000000000000 ) ) ;
#199 = DIRECTION ( 'NONE',  ( -1.000000000000000000, -0.0000000000000000000, -0.0000000000000000000 ) ) ;
#200 = DIRECTION ( 'NONE',  ( 1.000000000000000000, 1.156482317317871500E-016, -0.0000000000000000000 ) ) ;
#201 = CARTESIAN_POINT ( 'NONE',  ( 12.49999999999999800, 7.499999999999999100, 500.0000000000000000 ) ) ;
#202 = PLANE ( 'NONE',  #35 ) ;
#203 = CARTESIAN_POINT ( 'NONE',  ( -12.50000000000000200, 7.499999999999999100, 500.0000000000000000 ) ) ;
#204 = DIRECTION ( 'NONE',  ( -1.156482317317871500E-016, 1.000000000000000000, 0.0000000000000000000 ) ) ;
#205 = DIRECTION ( 'NONE',  ( -1.000000000000000000, -1.156482317317871500E-016, 0.0000000000000000000 ) ) ;
#206 = PLANE ( 'NONE',  #12 ) ;
#207 = CARTESIAN_POINT ( 'NONE',  ( -12.50000000000000200, 7.499999999999999100, 500.0000000000000000 ) ) ;
#208 = CARTESIAN_POINT ( 'NONE',  ( -12.50000000000000000, -7.500000000000000900, 500.0000000000000000 ) ) ;
#209 = LINE ( 'NONE', #207, #7 ) ;
#210 = CARTESIAN_POINT ( 'NONE',  ( -12.50000000000000000, -7.500000000000000900, 500.0000000000000000 ) ) ;
#211 = LINE ( 'NONE', #212, #33 ) ;
#212 = CARTESIAN_POINT ( 'NONE',  ( 12.49999999999999800, 7.499999999999999100, -500.0000000000000000 ) ) ;
#213 = DIRECTION ( 'NONE',  ( 1.000000000000000000, 0.0000000000000000000, 0.0000000000000000000 ) ) ;
#214 = PLANE ( 'NONE',  #38 ) ;
#215 = DIRECTION ( 'NONE',  ( 0.0000000000000000000, -0.0000000000000000000, 1.000000000000000000 ) ) ;
#216 = LINE ( 'NONE', #210, #22 ) ;
#217 = DIRECTION ( 'NONE',  ( 1.156482317317871500E-016, -1.000000000000000000, 0.0000000000000000000 ) ) ;
#218 = DIRECTION ( 'NONE',  ( 0.0000000000000000000, 1.000000000000000000, 0.0000000000000000000 ) ) ;
#219 = CARTESIAN_POINT ( 'NONE',  ( 12.50000000000000000, -7.500000000000000900, -500.0000000000000000 ) ) ;
#220 = CARTESIAN_POINT ( 'NONE',  ( 0.0000000000000000000, 0.0000000000000000000, -500.0000000000000000 ) ) ;
#221 = DIRECTION ( 'NONE',  ( 1.000000000000000000, 0.0000000000000000000, 0.0000000000000000000 ) ) ;
#222 = DIRECTION ( 'NONE',  ( -0.0000000000000000000, 0.0000000000000000000, 1.000000000000000000 ) ) ;
#223 = DIRECTION ( 'NONE',  ( 1.000000000000000000, 0.0000000000000000000, 0.0000000000000000000 ) ) ;
#224 = PLANE ( 'NONE',  #25 ) ;
#225 = CARTESIAN_POINT ( 'NONE',  ( -12.50000000000000200, 7.499999999999999100, 500.0000000000000000 ) ) ;
#226 = CARTESIAN_POINT ( 'NONE',  ( -12.50000000000000200, 7.499999999999999100, -500.0000000000000000 ) ) ;
#227 = DIRECTION ( 'NONE',  ( -1.156482317317871500E-016, 1.000000000000000000, -0.0000000000000000000 ) ) ;
#228 = CARTESIAN_POINT ( 'NONE',  ( 12.50000000000000000, -7.500000000000000900, 500.0000000000000000 ) ) ;
#229 = CARTESIAN_POINT ( 'NONE',  ( -12.50000000000000000, -7.500000000000000900, -500.0000000000000000 ) ) ;
#230 = CARTESIAN_POINT ( 'NONE',  ( 12.49999999999999800, 7.499999999999999100, -500.0000000000000000 ) ) ;
#231 = CARTESIAN_POINT ( 'NONE',  ( -12.50000000000000000, -7.500000000000000900, 500.0000000000000000 ) ) ;
#232 = CARTESIAN_POINT ( 'NONE',  ( 12.49999999999999800, 7.499999999999999100, 500.0000000000000000 ) ) ;
#233 =( LENGTH_UNIT ( ) NAMED_UNIT ( * ) SI_UNIT ( .MILLI., .METRE. ) );
#234 = PLANE ( 'NONE',  #44 ) ;
#235 = DIRECTION ( 'NONE',  ( 0.0000000000000000000, -1.000000000000000000, 0.0000000000000000000 ) ) ;
#236 = CARTESIAN_POINT ( 'NONE',  ( 0.0000000000000000000, 0.0000000000000000000, 500.0000000000000000 ) ) ;
#237 = DIRECTION ( 'NONE',  ( -0.0000000000000000000, 0.0000000000000000000, 1.000000000000000000 ) ) ;
ENDSEC;
END-ISO-10303-21;
