ISO-10303-21;
HEADER;
FILE_DESCRIPTION (( 'STEP AP203' ),
    '1' );
FILE_NAME ('sone3D.STEP',
    '2015-08-11T10:26:23',
    ( '' ),
    ( '' ),
    'SwSTEP 2.0',
    'SolidWorks 2012',
    '' );
FILE_SCHEMA (( 'CONFIG_CONTROL_DESIGN' ));
ENDSEC;

DATA;
#1 = APPLICATION_CONTEXT ( 'configuration controlled 3d designs of mechanical parts and assemblies' ) ;
#2 = APPLICATION_CONTEXT ( 'configuration controlled 3d designs of mechanical parts and assemblies' ) ;
#3 = PERSON ( 'UNSPECIFIED', 'UNSPECIFIED', 'UNSPECIFIED', ('UNSPECIFIED'), ('UNSPECIFIED'), ('UNSPECIFIED') ) ;
#4 = UNCERTAINTY_MEASURE_WITH_UNIT (LENGTH_MEASURE( 1.000000000000000100E-005 ), #192, 'distance_accuracy_value', 'NONE');
#5 = ADVANCED_BREP_SHAPE_REPRESENTATION ( 'sone3D', ( #88, #12 ), #87 ) ;
#6 = CC_DESIGN_APPROVAL ( #73, ( #46 ) ) ;
#7 = VECTOR ( 'NONE', #149, 1000.000000000000000 ) ;
#8 = FACE_OUTER_BOUND ( 'NONE', #123, .T. ) ;
#9 = FACE_OUTER_BOUND ( 'NONE', #122, .T. ) ;
#10 = VECTOR ( 'NONE', #164, 1000.000000000000000 ) ;
#11 = FACE_OUTER_BOUND ( 'NONE', #126, .T. ) ;
#12 = AXIS2_PLACEMENT_3D ( 'NONE', #198, #196, #197 ) ;
#13 = FACE_OUTER_BOUND ( 'NONE', #124, .T. ) ;
#14 = AXIS2_PLACEMENT_3D ( 'NONE', #169, #183, #181 ) ;
#15 = APPROVAL_PERSON_ORGANIZATION ( #226, #73, #228 ) ;
#16 = CC_DESIGN_APPROVAL ( #75, ( #35 ) ) ;
#17 = ORGANIZATION ( 'UNSPECIFIED', 'UNSPECIFIED', '' ) ;
#18 = VECTOR ( 'NONE', #168, 1000.000000000000000 ) ;
#19 = AXIS2_PLACEMENT_3D ( 'NONE', #186, #235, #237 ) ;
#20 = CC_DESIGN_APPROVAL ( #81, ( #70 ) ) ;
#21 = AXIS2_PLACEMENT_3D ( 'NONE', #150, #151, #152 ) ;
#22 = COORDINATED_UNIVERSAL_TIME_OFFSET ( 9, 0, .AHEAD. ) ;
#23 = CALENDAR_DATE ( 2015, 11, 8 ) ;
#24 = APPROVAL_PERSON_ORGANIZATION ( #217, #75, #218 ) ;
#25 = COORDINATED_UNIVERSAL_TIME_OFFSET ( 9, 0, .AHEAD. ) ;
#26 = VECTOR ( 'NONE', #189, 1000.000000000000000 ) ;
#27 = CALENDAR_DATE ( 2015, 11, 8 ) ;
#28 = VECTOR ( 'NONE', #159, 1000.000000000000000 ) ;
#29 = FACE_OUTER_BOUND ( 'NONE', #121, .T. ) ;
#30 = COORDINATED_UNIVERSAL_TIME_OFFSET ( 9, 0, .AHEAD. ) ;
#31 = CALENDAR_DATE ( 2015, 11, 8 ) ;
#32 = VECTOR ( 'NONE', #140, 1000.000000000000000 ) ;
#33 = APPROVAL_PERSON_ORGANIZATION ( #209, #81, #203 ) ;
#34 = VECTOR ( 'NONE', #166, 1000.000000000000000 ) ;
#35 = PRODUCT_DEFINITION_FORMATION_WITH_SPECIFIED_SOURCE ( 'ANY', '', #91, .NOT_KNOWN. ) ;
#36 = CLOSED_SHELL ( 'NONE', ( #52, #61, #65, #85, #77, #76 ) ) ;
#37 = AXIS2_PLACEMENT_3D ( 'NONE', #129, #130, #132 ) ;
#38 = VECTOR ( 'NONE', #157, 1000.000000000000000 ) ;
#39 = CC_DESIGN_SECURITY_CLASSIFICATION ( #46, ( #35 ) ) ;
#40 = VECTOR ( 'NONE', #143, 1000.000000000000000 ) ;
#41 = AXIS2_PLACEMENT_3D ( 'NONE', #160, #178, #172 ) ;
#42 = VECTOR ( 'NONE', #133, 1000.000000000000000 ) ;
#43 = COORDINATED_UNIVERSAL_TIME_OFFSET ( 9, 0, .AHEAD. ) ;
#44 = FACE_OUTER_BOUND ( 'NONE', #125, .T. ) ;
#45 = COORDINATED_UNIVERSAL_TIME_OFFSET ( 9, 0, .AHEAD. ) ;
#46 = SECURITY_CLASSIFICATION ( '', '', #224 ) ;
#47 = VECTOR ( 'NONE', #137, 1000.000000000000000 ) ;
#48 = CALENDAR_DATE ( 2015, 11, 8 ) ;
#49 = AXIS2_PLACEMENT_3D ( 'NONE', #144, #145, #146 ) ;
#50 = VECTOR ( 'NONE', #156, 1000.000000000000000 ) ;
#51 = CALENDAR_DATE ( 2015, 11, 8 ) ;
#52 = ADVANCED_FACE ( 'NONE', ( #9 ), #127, .F. ) ;
#53 = EDGE_CURVE ( 'NONE', #97, #98, #202, .T. ) ;
#54 = PRODUCT_RELATED_PRODUCT_CATEGORY ( 'detail', '', ( #91 ) ) ;
#55 = EDGE_CURVE ( 'NONE', #92, #94, #135, .T. ) ;
#56 = EDGE_CURVE ( 'NONE', #96, #98, #138, .T. ) ;
#57 = CC_DESIGN_PERSON_AND_ORGANIZATION_ASSIGNMENT ( #227, #219, ( #35 ) ) ;
#58 = LOCAL_TIME ( 19, 26, 23.00000000000000000, #25 ) ;
#59 = CC_DESIGN_PERSON_AND_ORGANIZATION_ASSIGNMENT ( #214, #215, ( #35 ) ) ;
#60 = EDGE_CURVE ( 'NONE', #98, #93, #141, .T. ) ;
#61 = ADVANCED_FACE ( 'NONE', ( #44 ), #134, .F. ) ;
#62 = EDGE_CURVE ( 'NONE', #95, #93, #147, .T. ) ;
#63 = CC_DESIGN_DATE_AND_TIME_ASSIGNMENT ( #223, #225, ( #46 ) ) ;
#64 = LOCAL_TIME ( 19, 26, 23.00000000000000000, #43 ) ;
#65 = ADVANCED_FACE ( 'NONE', ( #13 ), #131, .F. ) ;
#66 = CC_DESIGN_PERSON_AND_ORGANIZATION_ASSIGNMENT ( #213, #207, ( #70 ) ) ;
#67 = EDGE_CURVE ( 'NONE', #94, #97, #154, .T. ) ;
#68 = EDGE_CURVE ( 'NONE', #93, #99, #165, .T. ) ;
#69 = EDGE_CURVE ( 'NONE', #94, #96, #161, .T. ) ;
#70 = PRODUCT_DEFINITION ( 'UNKNOWN', '', #35, #90 ) ;
#71 = CC_DESIGN_DATE_AND_TIME_ASSIGNMENT ( #208, #216, ( #70 ) ) ;
#72 = LOCAL_TIME ( 19, 26, 23.00000000000000000, #30 ) ;
#73 = APPROVAL ( #232, 'UNSPECIFIED' ) ;
#74 = LOCAL_TIME ( 19, 26, 23.00000000000000000, #45 ) ;
#75 = APPROVAL ( #211, 'UNSPECIFIED' ) ;
#76 = ADVANCED_FACE ( 'NONE', ( #29 ), #171, .F. ) ;
#77 = ADVANCED_FACE ( 'NONE', ( #11 ), #182, .T. ) ;
#78 = EDGE_CURVE ( 'NONE', #99, #96, #233, .T. ) ;
#79 = EDGE_CURVE ( 'NONE', #97, #95, #128, .T. ) ;
#80 = CC_DESIGN_PERSON_AND_ORGANIZATION_ASSIGNMENT ( #206, #199, ( #91 ) ) ;
#81 = APPROVAL ( #210, 'UNSPECIFIED' ) ;
#82 = EDGE_CURVE ( 'NONE', #95, #92, #170, .T. ) ;
#83 = CC_DESIGN_PERSON_AND_ORGANIZATION_ASSIGNMENT ( #220, #231, ( #46 ) ) ;
#84 = EDGE_CURVE ( 'NONE', #92, #99, #176, .T. ) ;
#85 = ADVANCED_FACE ( 'NONE', ( #8 ), #153, .F. ) ;
#86 = LOCAL_TIME ( 19, 26, 23.00000000000000000, #22 ) ;
#87 =( GEOMETRIC_REPRESENTATION_CONTEXT ( 3 ) GLOBAL_UNCERTAINTY_ASSIGNED_CONTEXT ( ( #4 ) ) GLOBAL_UNIT_ASSIGNED_CONTEXT ( ( #192, #185, #190 ) ) REPRESENTATION_CONTEXT ( 'NONE', 'WORKASPACE' ) );
#88 = MANIFOLD_SOLID_BREP ( 'ÎÞ½ - µoµ1', #36 ) ;
#89 = PRODUCT_DEFINITION_SHAPE ( 'NONE', 'NONE',  #70 ) ;
#90 = DESIGN_CONTEXT ( 'detailed design', #1, 'design' ) ;
#91 = PRODUCT ( 'sone3D', 'sone3D', '', ( #205 ) ) ;
#92 = VERTEX_POINT ( 'NONE', #175 ) ;
#93 = VERTEX_POINT ( 'NONE', #174 ) ;
#94 = VERTEX_POINT ( 'NONE', #184 ) ;
#95 = VERTEX_POINT ( 'NONE', #191 ) ;
#96 = VERTEX_POINT ( 'NONE', #177 ) ;
#97 = VERTEX_POINT ( 'NONE', #180 ) ;
#98 = VERTEX_POINT ( 'NONE', #187 ) ;
#99 = VERTEX_POINT ( 'NONE', #188 ) ;
#100 = ORIENTED_EDGE ( 'NONE', *, *, #56, .T. ) ;
#101 = ORIENTED_EDGE ( 'NONE', *, *, #84, .T. ) ;
#102 = ORIENTED_EDGE ( 'NONE', *, *, #55, .F. ) ;
#103 = ORIENTED_EDGE ( 'NONE', *, *, #56, .F. ) ;
#104 = ORIENTED_EDGE ( 'NONE', *, *, #82, .T. ) ;
#105 = ORIENTED_EDGE ( 'NONE', *, *, #68, .T. ) ;
#106 = ORIENTED_EDGE ( 'NONE', *, *, #78, .T. ) ;
#107 = ORIENTED_EDGE ( 'NONE', *, *, #62, .T. ) ;
#108 = ORIENTED_EDGE ( 'NONE', *, *, #84, .F. ) ;
#109 = ORIENTED_EDGE ( 'NONE', *, *, #82, .F. ) ;
#110 = ORIENTED_EDGE ( 'NONE', *, *, #69, .T. ) ;
#111 = ORIENTED_EDGE ( 'NONE', *, *, #67, .F. ) ;
#112 = ORIENTED_EDGE ( 'NONE', *, *, #67, .T. ) ;
#113 = ORIENTED_EDGE ( 'NONE', *, *, #79, .F. ) ;
#114 = ORIENTED_EDGE ( 'NONE', *, *, #62, .F. ) ;
#115 = ORIENTED_EDGE ( 'NONE', *, *, #53, .T. ) ;
#116 = ORIENTED_EDGE ( 'NONE', *, *, #53, .F. ) ;
#117 = ORIENTED_EDGE ( 'NONE', *, *, #55, .T. ) ;
#118 = ORIENTED_EDGE ( 'NONE', *, *, #68, .F. ) ;
#119 = ORIENTED_EDGE ( 'NONE', *, *, #60, .F. ) ;
#120 = ORIENTED_EDGE ( 'NONE', *, *, #79, .T. ) ;
#121 = EDGE_LOOP ( 'NONE', ( #119, #103, #193, #118 ) ) ;
#122 = EDGE_LOOP ( 'NONE', ( #195, #114, #113, #115 ) ) ;
#123 = EDGE_LOOP ( 'NONE', ( #100, #116, #111, #110 ) ) ;
#124 = EDGE_LOOP ( 'NONE', ( #106, #236, #102, #101 ) ) ;
#125 = EDGE_LOOP ( 'NONE', ( #105, #108, #109, #107 ) ) ;
#126 = EDGE_LOOP ( 'NONE', ( #120, #104, #117, #112 ) ) ;
#127 = PLANE ( 'NONE',  #37 ) ;
#128 = LINE ( 'NONE', #158, #18 ) ;
#129 = CARTESIAN_POINT ( 'NONE',  ( -7.500000000000000000, 7.500000000000000900, 500.0000000000000000 ) ) ;
#130 = DIRECTION ( 'NONE',  ( 1.000000000000000000, 0.0000000000000000000, -0.0000000000000000000 ) ) ;
#131 = PLANE ( 'NONE',  #21 ) ;
#132 = DIRECTION ( 'NONE',  ( -0.0000000000000000000, 0.0000000000000000000, -1.000000000000000000 ) ) ;
#133 = DIRECTION ( 'NONE',  ( -0.0000000000000000000, -0.0000000000000000000, -1.000000000000000000 ) ) ;
#134 = PLANE ( 'NONE',  #49 ) ;
#135 = LINE ( 'NONE', #136, #47 ) ;
#136 = CARTESIAN_POINT ( 'NONE',  ( 7.500000000000000000, 7.500000000000000900, 500.0000000000000000 ) ) ;
#137 = DIRECTION ( 'NONE',  ( -2.312964634635743000E-016, 1.000000000000000000, -0.0000000000000000000 ) ) ;
#138 = LINE ( 'NONE', #139, #32 ) ;
#139 = CARTESIAN_POINT ( 'NONE',  ( -7.500000000000000000, 7.500000000000000900, -500.0000000000000000 ) ) ;
#140 = DIRECTION ( 'NONE',  ( -1.000000000000000000, -0.0000000000000000000, -0.0000000000000000000 ) ) ;
#141 = LINE ( 'NONE', #142, #40 ) ;
#142 = CARTESIAN_POINT ( 'NONE',  ( -7.500000000000000000, 7.500000000000000900, -500.0000000000000000 ) ) ;
#143 = DIRECTION ( 'NONE',  ( 0.0000000000000000000, -1.000000000000000000, 0.0000000000000000000 ) ) ;
#144 = CARTESIAN_POINT ( 'NONE',  ( -7.500000000000000000, -7.499999999999999100, 500.0000000000000000 ) ) ;
#145 = DIRECTION ( 'NONE',  ( 5.782411586589356200E-017, 1.000000000000000000, -0.0000000000000000000 ) ) ;
#146 = DIRECTION ( 'NONE',  ( -1.000000000000000000, 5.782411586589356200E-017, 0.0000000000000000000 ) ) ;
#147 = LINE ( 'NONE', #148, #7 ) ;
#148 = CARTESIAN_POINT ( 'NONE',  ( -7.500000000000000000, -7.499999999999999100, 500.0000000000000000 ) ) ;
#149 = DIRECTION ( 'NONE',  ( -0.0000000000000000000, -0.0000000000000000000, -1.000000000000000000 ) ) ;
#150 = CARTESIAN_POINT ( 'NONE',  ( 7.500000000000000000, 7.500000000000000900, 500.0000000000000000 ) ) ;
#151 = DIRECTION ( 'NONE',  ( -1.000000000000000000, -2.312964634635743000E-016, 0.0000000000000000000 ) ) ;
#152 = DIRECTION ( 'NONE',  ( 2.312964634635743000E-016, -1.000000000000000000, 0.0000000000000000000 ) ) ;
#153 = PLANE ( 'NONE',  #14 ) ;
#154 = LINE ( 'NONE', #155, #50 ) ;
#155 = CARTESIAN_POINT ( 'NONE',  ( -7.500000000000000000, 7.500000000000000900, 500.0000000000000000 ) ) ;
#156 = DIRECTION ( 'NONE',  ( -1.000000000000000000, -0.0000000000000000000, -0.0000000000000000000 ) ) ;
#157 = DIRECTION ( 'NONE',  ( 1.000000000000000000, -5.782411586589356200E-017, 0.0000000000000000000 ) ) ;
#158 = CARTESIAN_POINT ( 'NONE',  ( -7.500000000000000000, 7.500000000000000900, 500.0000000000000000 ) ) ;
#159 = DIRECTION ( 'NONE',  ( -0.0000000000000000000, -0.0000000000000000000, -1.000000000000000000 ) ) ;
#160 = CARTESIAN_POINT ( 'NONE',  ( 0.0000000000000000000, 0.0000000000000000000, -500.0000000000000000 ) ) ;
#161 = LINE ( 'NONE', #162, #28 ) ;
#162 = CARTESIAN_POINT ( 'NONE',  ( 7.500000000000000000, 7.500000000000000900, 500.0000000000000000 ) ) ;
#163 = CARTESIAN_POINT ( 'NONE',  ( -7.500000000000000000, -7.499999999999999100, 500.0000000000000000 ) ) ;
#164 = DIRECTION ( 'NONE',  ( 1.000000000000000000, -5.782411586589356200E-017, 0.0000000000000000000 ) ) ;
#165 = LINE ( 'NONE', #167, #38 ) ;
#166 = DIRECTION ( 'NONE',  ( -0.0000000000000000000, -0.0000000000000000000, -1.000000000000000000 ) ) ;
#167 = CARTESIAN_POINT ( 'NONE',  ( -7.500000000000000000, -7.499999999999999100, -500.0000000000000000 ) ) ;
#168 = DIRECTION ( 'NONE',  ( 0.0000000000000000000, -1.000000000000000000, 0.0000000000000000000 ) ) ;
#169 = CARTESIAN_POINT ( 'NONE',  ( -7.500000000000000000, 7.500000000000000900, 500.0000000000000000 ) ) ;
#170 = LINE ( 'NONE', #163, #10 ) ;
#171 = PLANE ( 'NONE',  #41 ) ;
#172 = DIRECTION ( 'NONE',  ( 1.000000000000000000, 0.0000000000000000000, -0.0000000000000000000 ) ) ;
#173 = CARTESIAN_POINT ( 'NONE',  ( 7.500000000000000000, 7.500000000000000900, -500.0000000000000000 ) ) ;
#174 = CARTESIAN_POINT ( 'NONE',  ( -7.500000000000000000, -7.499999999999999100, -500.0000000000000000 ) ) ;
#175 = CARTESIAN_POINT ( 'NONE',  ( 7.500000000000003600, -7.500000000000000000, 500.0000000000000000 ) ) ;
#176 = LINE ( 'NONE', #179, #34 ) ;
#177 = CARTESIAN_POINT ( 'NONE',  ( 7.500000000000000000, 7.500000000000000900, -500.0000000000000000 ) ) ;
#178 = DIRECTION ( 'NONE',  ( 0.0000000000000000000, 0.0000000000000000000, 1.000000000000000000 ) ) ;
#179 = CARTESIAN_POINT ( 'NONE',  ( 7.500000000000003600, -7.500000000000000000, 500.0000000000000000 ) ) ;
#180 = CARTESIAN_POINT ( 'NONE',  ( -7.500000000000000000, 7.500000000000000900, 500.0000000000000000 ) ) ;
#181 = DIRECTION ( 'NONE',  ( 0.0000000000000000000, -0.0000000000000000000, -1.000000000000000000 ) ) ;
#182 = PLANE ( 'NONE',  #19 ) ;
#183 = DIRECTION ( 'NONE',  ( 0.0000000000000000000, -1.000000000000000000, 0.0000000000000000000 ) ) ;
#184 = CARTESIAN_POINT ( 'NONE',  ( 7.500000000000000000, 7.500000000000000900, 500.0000000000000000 ) ) ;
#185 =( NAMED_UNIT ( * ) PLANE_ANGLE_UNIT ( ) SI_UNIT ( $, .RADIAN. ) );
#186 = CARTESIAN_POINT ( 'NONE',  ( 0.0000000000000000000, 0.0000000000000000000, 500.0000000000000000 ) ) ;
#187 = CARTESIAN_POINT ( 'NONE',  ( -7.500000000000000000, 7.500000000000000900, -500.0000000000000000 ) ) ;
#188 = CARTESIAN_POINT ( 'NONE',  ( 7.500000000000003600, -7.500000000000000000, -500.0000000000000000 ) ) ;
#189 = DIRECTION ( 'NONE',  ( -2.312964634635743000E-016, 1.000000000000000000, -0.0000000000000000000 ) ) ;
#190 =( NAMED_UNIT ( * ) SI_UNIT ( $, .STERADIAN. ) SOLID_ANGLE_UNIT ( ) );
#191 = CARTESIAN_POINT ( 'NONE',  ( -7.500000000000000000, -7.499999999999999100, 500.0000000000000000 ) ) ;
#192 =( LENGTH_UNIT ( ) NAMED_UNIT ( * ) SI_UNIT ( .MILLI., .METRE. ) );
#193 = ORIENTED_EDGE ( 'NONE', *, *, #78, .F. ) ;
#194 = APPLICATION_PROTOCOL_DEFINITION ( 'international standard', 'config_control_design', 1994, #2 ) ;
#195 = ORIENTED_EDGE ( 'NONE', *, *, #60, .T. ) ;
#196 = DIRECTION ( 'NONE',  ( 0.0000000000000000000, 0.0000000000000000000, 1.000000000000000000 ) ) ;
#197 = DIRECTION ( 'NONE',  ( 1.000000000000000000, 0.0000000000000000000, 0.0000000000000000000 ) ) ;
#198 = CARTESIAN_POINT ( 'NONE',  ( 0.0000000000000000000, 0.0000000000000000000, 0.0000000000000000000 ) ) ;
#199 = PERSON_AND_ORGANIZATION_ROLE ( 'design_owner' ) ;
#200 = APPLICATION_PROTOCOL_DEFINITION ( 'international standard', 'config_control_design', 1994, #1 ) ;
#201 = SHAPE_DEFINITION_REPRESENTATION ( #89, #5 ) ;
#202 = LINE ( 'NONE', #234, #42 ) ;
#203 = APPROVAL_ROLE ( '' ) ;
#204 = DATE_AND_TIME ( #48, #86 ) ;
#205 = MECHANICAL_CONTEXT ( 'NONE', #2, 'mechanical' ) ;
#206 = PERSON_AND_ORGANIZATION ( #3, #17 ) ;
#207 = PERSON_AND_ORGANIZATION_ROLE ( 'creator' ) ;
#208 = DATE_AND_TIME ( #27, #72 ) ;
#209 = PERSON_AND_ORGANIZATION ( #3, #17 ) ;
#210 = APPROVAL_STATUS ( 'not_yet_approved' ) ;
#211 = APPROVAL_STATUS ( 'not_yet_approved' ) ;
#212 = APPROVAL_DATE_TIME ( #204, #81 ) ;
#213 = PERSON_AND_ORGANIZATION ( #3, #17 ) ;
#214 = PERSON_AND_ORGANIZATION ( #3, #17 ) ;
#215 = PERSON_AND_ORGANIZATION_ROLE ( 'creator' ) ;
#216 = DATE_TIME_ROLE ( 'creation_date' ) ;
#217 = PERSON_AND_ORGANIZATION ( #3, #17 ) ;
#218 = APPROVAL_ROLE ( '' ) ;
#219 = PERSON_AND_ORGANIZATION_ROLE ( 'design_supplier' ) ;
#220 = PERSON_AND_ORGANIZATION ( #3, #17 ) ;
#221 = DATE_AND_TIME ( #31, #74 ) ;
#222 = APPROVAL_DATE_TIME ( #221, #75 ) ;
#223 = DATE_AND_TIME ( #23, #58 ) ;
#224 = SECURITY_CLASSIFICATION_LEVEL ( 'unclassified' ) ;
#225 = DATE_TIME_ROLE ( 'classification_date' ) ;
#226 = PERSON_AND_ORGANIZATION ( #3, #17 ) ;
#227 = PERSON_AND_ORGANIZATION ( #3, #17 ) ;
#228 = APPROVAL_ROLE ( '' ) ;
#229 = DATE_AND_TIME ( #51, #64 ) ;
#230 = APPROVAL_DATE_TIME ( #229, #73 ) ;
#231 = PERSON_AND_ORGANIZATION_ROLE ( 'classification_officer' ) ;
#232 = APPROVAL_STATUS ( 'not_yet_approved' ) ;
#233 = LINE ( 'NONE', #173, #26 ) ;
#234 = CARTESIAN_POINT ( 'NONE',  ( -7.500000000000000000, 7.500000000000000900, 500.0000000000000000 ) ) ;
#235 = DIRECTION ( 'NONE',  ( 0.0000000000000000000, 0.0000000000000000000, 1.000000000000000000 ) ) ;
#236 = ORIENTED_EDGE ( 'NONE', *, *, #69, .F. ) ;
#237 = DIRECTION ( 'NONE',  ( 1.000000000000000000, 0.0000000000000000000, -0.0000000000000000000 ) ) ;
ENDSEC;
END-ISO-10303-21;
