ISO-10303-21;
HEADER;
FILE_DESCRIPTION (( 'STEP AP203' ),
    '1' );
FILE_NAME ('sone3D.STEP',
    '2015-08-11T10:25:39',
    ( '' ),
    ( '' ),
    'SwSTEP 2.0',
    'SolidWorks 2012',
    '' );
FILE_SCHEMA (( 'CONFIG_CONTROL_DESIGN' ));
ENDSEC;

DATA;
#1 = ADVANCED_BREP_SHAPE_REPRESENTATION ( 'sone3D', ( #90, #40 ), #87 ) ;
#2 = UNCERTAINTY_MEASURE_WITH_UNIT (LENGTH_MEASURE( 1.000000000000000100E-005 ), #185, 'distance_accuracy_value', 'NONE');
#3 = PERSON ( 'UNSPECIFIED', 'UNSPECIFIED', 'UNSPECIFIED', ('UNSPECIFIED'), ('UNSPECIFIED'), ('UNSPECIFIED') ) ;
#4 = COORDINATED_UNIVERSAL_TIME_OFFSET ( 9, 0, .AHEAD. ) ;
#5 = CC_DESIGN_APPROVAL ( #50, ( #15 ) ) ;
#6 = APPROVAL_PERSON_ORGANIZATION ( #187, #50, #161 ) ;
#7 = VECTOR ( 'NONE', #120, 1000.000000000000000 ) ;
#8 = VECTOR ( 'NONE', #133, 1000.000000000000000 ) ;
#9 = VECTOR ( 'NONE', #138, 1000.000000000000000 ) ;
#10 = AXIS2_PLACEMENT_3D ( 'NONE', #231, #100, #127 ) ;
#11 = VECTOR ( 'NONE', #237, 1000.000000000000000 ) ;
#12 = CLOSED_SHELL ( 'NONE', ( #58, #59, #62, #51, #76, #70 ) ) ;
#13 = VECTOR ( 'NONE', #180, 1000.000000000000000 ) ;
#14 = CC_DESIGN_APPROVAL ( #77, ( #16 ) ) ;
#15 = PRODUCT_DEFINITION_FORMATION_WITH_SPECIFIED_SOURCE ( 'ANY', '', #91, .NOT_KNOWN. ) ;
#16 = SECURITY_CLASSIFICATION ( '', '', #166 ) ;
#17 = FACE_OUTER_BOUND ( 'NONE', #112, .T. ) ;
#18 = AXIS2_PLACEMENT_3D ( 'NONE', #139, #142, #143 ) ;
#19 = CC_DESIGN_SECURITY_CLASSIFICATION ( #16, ( #15 ) ) ;
#20 = VECTOR ( 'NONE', #165, 1000.000000000000000 ) ;
#21 = AXIS2_PLACEMENT_3D ( 'NONE', #153, #98, #218 ) ;
#22 = CALENDAR_DATE ( 2015, 11, 8 ) ;
#23 = CALENDAR_DATE ( 2015, 11, 8 ) ;
#24 = AXIS2_PLACEMENT_3D ( 'NONE', #172, #212, #93 ) ;
#25 = COORDINATED_UNIVERSAL_TIME_OFFSET ( 9, 0, .AHEAD. ) ;
#26 = FACE_OUTER_BOUND ( 'NONE', #136, .T. ) ;
#27 = COORDINATED_UNIVERSAL_TIME_OFFSET ( 9, 0, .AHEAD. ) ;
#28 = AXIS2_PLACEMENT_3D ( 'NONE', #141, #216, #135 ) ;
#29 = CALENDAR_DATE ( 2015, 11, 8 ) ;
#30 = VECTOR ( 'NONE', #192, 1000.000000000000000 ) ;
#31 = CALENDAR_DATE ( 2015, 11, 8 ) ;
#32 = FACE_OUTER_BOUND ( 'NONE', #160, .T. ) ;
#33 = AXIS2_PLACEMENT_3D ( 'NONE', #151, #125, #183 ) ;
#34 = COORDINATED_UNIVERSAL_TIME_OFFSET ( 9, 0, .AHEAD. ) ;
#35 = FACE_OUTER_BOUND ( 'NONE', #137, .T. ) ;
#36 = ORGANIZATION ( 'UNSPECIFIED', 'UNSPECIFIED', '' ) ;
#37 = FACE_OUTER_BOUND ( 'NONE', #109, .T. ) ;
#38 = VECTOR ( 'NONE', #211, 1000.000000000000000 ) ;
#39 = FACE_OUTER_BOUND ( 'NONE', #103, .T. ) ;
#40 = AXIS2_PLACEMENT_3D ( 'NONE', #128, #206, #97 ) ;
#41 = COORDINATED_UNIVERSAL_TIME_OFFSET ( 9, 0, .AHEAD. ) ;
#42 = APPROVAL_PERSON_ORGANIZATION ( #117, #80, #101 ) ;
#43 = VECTOR ( 'NONE', #205, 1000.000000000000000 ) ;
#44 = CALENDAR_DATE ( 2015, 11, 8 ) ;
#45 = APPROVAL_PERSON_ORGANIZATION ( #203, #77, #230 ) ;
#46 = CC_DESIGN_APPROVAL ( #80, ( #72 ) ) ;
#47 = VECTOR ( 'NONE', #195, 1000.000000000000000 ) ;
#48 = VECTOR ( 'NONE', #199, 1000.000000000000000 ) ;
#49 = VECTOR ( 'NONE', #209, 1000.000000000000000 ) ;
#50 = APPROVAL ( #108, 'UNSPECIFIED' ) ;
#51 = ADVANCED_FACE ( 'NONE', ( #39 ), #140, .F. ) ;
#52 = CC_DESIGN_PERSON_AND_ORGANIZATION_ASSIGNMENT ( #152, #169, ( #16 ) ) ;
#53 = LOCAL_TIME ( 19, 25, 39.00000000000000000, #34 ) ;
#54 = EDGE_CURVE ( 'NONE', #130, #145, #96, .T. ) ;
#55 = EDGE_CURVE ( 'NONE', #144, #131, #221, .T. ) ;
#56 = CC_DESIGN_PERSON_AND_ORGANIZATION_ASSIGNMENT ( #105, #191, ( #15 ) ) ;
#57 = CC_DESIGN_DATE_AND_TIME_ASSIGNMENT ( #213, #232, ( #72 ) ) ;
#58 = ADVANCED_FACE ( 'NONE', ( #26 ), #207, .F. ) ;
#59 = ADVANCED_FACE ( 'NONE', ( #17 ), #148, .F. ) ;
#60 = EDGE_CURVE ( 'NONE', #131, #130, #222, .T. ) ;
#61 = LOCAL_TIME ( 19, 25, 39.00000000000000000, #41 ) ;
#62 = ADVANCED_FACE ( 'NONE', ( #37 ), #171, .F. ) ;
#63 = EDGE_CURVE ( 'NONE', #197, #131, #214, .T. ) ;
#64 = EDGE_CURVE ( 'NONE', #155, #144, #147, .T. ) ;
#65 = CC_DESIGN_PERSON_AND_ORGANIZATION_ASSIGNMENT ( #95, #114, ( #91 ) ) ;
#66 = EDGE_CURVE ( 'NONE', #145, #197, #188, .T. ) ;
#67 = EDGE_CURVE ( 'NONE', #155, #197, #164, .T. ) ;
#68 = LOCAL_TIME ( 19, 25, 39.00000000000000000, #27 ) ;
#69 = EDGE_CURVE ( 'NONE', #210, #130, #186, .T. ) ;
#70 = ADVANCED_FACE ( 'NONE', ( #35 ), #146, .F. ) ;
#71 = CC_DESIGN_PERSON_AND_ORGANIZATION_ASSIGNMENT ( #225, #111, ( #72 ) ) ;
#72 = PRODUCT_DEFINITION ( 'UNKNOWN', '', #15, #89 ) ;
#73 = LOCAL_TIME ( 19, 25, 39.00000000000000000, #25 ) ;
#74 = EDGE_CURVE ( 'NONE', #210, #154, #233, .T. ) ;
#75 = EDGE_CURVE ( 'NONE', #154, #145, #123, .T. ) ;
#76 = ADVANCED_FACE ( 'NONE', ( #32 ), #219, .T. ) ;
#77 = APPROVAL ( #234, 'UNSPECIFIED' ) ;
#78 = EDGE_CURVE ( 'NONE', #144, #210, #102, .T. ) ;
#79 = CC_DESIGN_DATE_AND_TIME_ASSIGNMENT ( #168, #193, ( #16 ) ) ;
#80 = APPROVAL ( #116, 'UNSPECIFIED' ) ;
#81 = PRODUCT_RELATED_PRODUCT_CATEGORY ( 'detail', '', ( #91 ) ) ;
#82 = CC_DESIGN_PERSON_AND_ORGANIZATION_ASSIGNMENT ( #150, #149, ( #15 ) ) ;
#83 = EDGE_CURVE ( 'NONE', #154, #155, #170, .T. ) ;
#84 = LOCAL_TIME ( 19, 25, 39.00000000000000000, #4 ) ;
#85 = APPLICATION_CONTEXT ( 'configuration controlled 3d designs of mechanical parts and assemblies' ) ;
#86 = APPLICATION_CONTEXT ( 'configuration controlled 3d designs of mechanical parts and assemblies' ) ;
#87 =( GEOMETRIC_REPRESENTATION_CONTEXT ( 3 ) GLOBAL_UNCERTAINTY_ASSIGNED_CONTEXT ( ( #2 ) ) GLOBAL_UNIT_ASSIGNED_CONTEXT ( ( #185, #132, #104 ) ) REPRESENTATION_CONTEXT ( 'NONE', 'WORKASPACE' ) );
#88 = PRODUCT_DEFINITION_SHAPE ( 'NONE', 'NONE',  #72 ) ;
#89 = DESIGN_CONTEXT ( 'detailed design', #86, 'design' ) ;
#90 = MANIFOLD_SOLID_BREP ( 'ÎÞ½ - µoµ1', #12 ) ;
#91 = PRODUCT ( 'sone3D', 'sone3D', '', ( #99 ) ) ;
#92 = ORIENTED_EDGE ( 'NONE', *, *, #69, .F. ) ;
#93 = DIRECTION ( 'NONE',  ( 1.000000000000000000, 0.0000000000000000000, 0.0000000000000000000 ) ) ;
#94 = ORIENTED_EDGE ( 'NONE', *, *, #64, .T. ) ;
#95 = PERSON_AND_ORGANIZATION ( #3, #36 ) ;
#96 = LINE ( 'NONE', #189, #11 ) ;
#97 = DIRECTION ( 'NONE',  ( 1.000000000000000000, 0.0000000000000000000, 0.0000000000000000000 ) ) ;
#98 = DIRECTION ( 'NONE',  ( 0.0000000000000000000, 1.000000000000000000, 0.0000000000000000000 ) ) ;
#99 = MECHANICAL_CONTEXT ( 'NONE', #85, 'mechanical' ) ;
#100 = DIRECTION ( 'NONE',  ( -0.0000000000000000000, 0.0000000000000000000, 1.000000000000000000 ) ) ;
#101 = APPROVAL_ROLE ( '' ) ;
#102 = LINE ( 'NONE', #227, #7 ) ;
#103 = EDGE_LOOP ( 'NONE', ( #162, #201, #106, #220 ) ) ;
#104 =( NAMED_UNIT ( * ) SI_UNIT ( $, .STERADIAN. ) SOLID_ANGLE_UNIT ( ) );
#105 = PERSON_AND_ORGANIZATION ( #3, #36 ) ;
#106 = ORIENTED_EDGE ( 'NONE', *, *, #83, .F. ) ;
#107 = DATE_AND_TIME ( #23, #68 ) ;
#108 = APPROVAL_STATUS ( 'not_yet_approved' ) ;
#109 = EDGE_LOOP ( 'NONE', ( #194, #122, #190, #163 ) ) ;
#110 = APPROVAL_DATE_TIME ( #107, #80 ) ;
#111 = PERSON_AND_ORGANIZATION_ROLE ( 'creator' ) ;
#112 = EDGE_LOOP ( 'NONE', ( #200, #92, #173, #235 ) ) ;
#113 = APPLICATION_PROTOCOL_DEFINITION ( 'international standard', 'config_control_design', 1994, #86 ) ;
#114 = PERSON_AND_ORGANIZATION_ROLE ( 'design_owner' ) ;
#115 = CARTESIAN_POINT ( 'NONE',  ( -19.99999999999999600, 6.000000000000000000, -500.0000000000000000 ) ) ;
#116 = APPROVAL_STATUS ( 'not_yet_approved' ) ;
#117 = PERSON_AND_ORGANIZATION ( #3, #36 ) ;
#118 = ORIENTED_EDGE ( 'NONE', *, *, #63, .T. ) ;
#119 = CARTESIAN_POINT ( 'NONE',  ( -19.99999999999999300, -6.000000000000000000, -500.0000000000000000 ) ) ;
#120 = DIRECTION ( 'NONE',  ( 1.000000000000000000, 0.0000000000000000000, 0.0000000000000000000 ) ) ;
#121 = ORIENTED_EDGE ( 'NONE', *, *, #67, .T. ) ;
#122 = ORIENTED_EDGE ( 'NONE', *, *, #75, .F. ) ;
#123 = LINE ( 'NONE', #129, #8 ) ;
#124 = ORIENTED_EDGE ( 'NONE', *, *, #74, .T. ) ;
#125 = DIRECTION ( 'NONE',  ( -1.000000000000000000, 2.891205793294678300E-016, 0.0000000000000000000 ) ) ;
#126 = ORIENTED_EDGE ( 'NONE', *, *, #55, .F. ) ;
#127 = DIRECTION ( 'NONE',  ( 1.000000000000000000, 0.0000000000000000000, 0.0000000000000000000 ) ) ;
#128 = CARTESIAN_POINT ( 'NONE',  ( 0.0000000000000000000, 0.0000000000000000000, 0.0000000000000000000 ) ) ;
#129 = CARTESIAN_POINT ( 'NONE',  ( 20.00000000000000400, 6.000000000000000000, 500.0000000000000000 ) ) ;
#130 = VERTEX_POINT ( 'NONE', #176 ) ;
#131 = VERTEX_POINT ( 'NONE', #179 ) ;
#132 =( NAMED_UNIT ( * ) PLANE_ANGLE_UNIT ( ) SI_UNIT ( $, .RADIAN. ) );
#133 = DIRECTION ( 'NONE',  ( -0.0000000000000000000, -0.0000000000000000000, -1.000000000000000000 ) ) ;
#134 = CARTESIAN_POINT ( 'NONE',  ( -19.99999999999999600, 6.000000000000000000, 500.0000000000000000 ) ) ;
#135 = DIRECTION ( 'NONE',  ( 0.0000000000000000000, -0.0000000000000000000, -1.000000000000000000 ) ) ;
#136 = EDGE_LOOP ( 'NONE', ( #118, #126, #184, #121 ) ) ;
#137 = EDGE_LOOP ( 'NONE', ( #167, #159, #228, #202 ) ) ;
#138 = DIRECTION ( 'NONE',  ( -0.0000000000000000000, -0.0000000000000000000, -1.000000000000000000 ) ) ;
#139 = CARTESIAN_POINT ( 'NONE',  ( -19.99999999999999600, 6.000000000000000000, 500.0000000000000000 ) ) ;
#140 = PLANE ( 'NONE',  #28 ) ;
#141 = CARTESIAN_POINT ( 'NONE',  ( -19.99999999999999600, 6.000000000000000000, 500.0000000000000000 ) ) ;
#142 = DIRECTION ( 'NONE',  ( 1.000000000000000000, 2.891205793294678300E-016, -0.0000000000000000000 ) ) ;
#143 = DIRECTION ( 'NONE',  ( -2.891205793294678300E-016, 1.000000000000000000, 0.0000000000000000000 ) ) ;
#144 = VERTEX_POINT ( 'NONE', #182 ) ;
#145 = VERTEX_POINT ( 'NONE', #181 ) ;
#146 = PLANE ( 'NONE',  #10 ) ;
#147 = LINE ( 'NONE', #134, #20 ) ;
#148 = PLANE ( 'NONE',  #21 ) ;
#149 = PERSON_AND_ORGANIZATION_ROLE ( 'design_supplier' ) ;
#150 = PERSON_AND_ORGANIZATION ( #3, #36 ) ;
#151 = CARTESIAN_POINT ( 'NONE',  ( 20.00000000000000400, 6.000000000000000000, 500.0000000000000000 ) ) ;
#152 = PERSON_AND_ORGANIZATION ( #3, #36 ) ;
#153 = CARTESIAN_POINT ( 'NONE',  ( -19.99999999999999300, -6.000000000000000000, 500.0000000000000000 ) ) ;
#154 = VERTEX_POINT ( 'NONE', #174 ) ;
#155 = VERTEX_POINT ( 'NONE', #178 ) ;
#156 = DATE_AND_TIME ( #44, #73 ) ;
#157 = CARTESIAN_POINT ( 'NONE',  ( -19.99999999999999600, 6.000000000000000000, -500.0000000000000000 ) ) ;
#158 = CARTESIAN_POINT ( 'NONE',  ( -19.99999999999999600, 6.000000000000000000, 500.0000000000000000 ) ) ;
#159 = ORIENTED_EDGE ( 'NONE', *, *, #66, .F. ) ;
#160 = EDGE_LOOP ( 'NONE', ( #94, #204, #124, #226 ) ) ;
#161 = APPROVAL_ROLE ( '' ) ;
#162 = ORIENTED_EDGE ( 'NONE', *, *, #66, .T. ) ;
#163 = ORIENTED_EDGE ( 'NONE', *, *, #69, .T. ) ;
#164 = LINE ( 'NONE', #158, #49 ) ;
#165 = DIRECTION ( 'NONE',  ( 2.891205793294678300E-016, -1.000000000000000000, 0.0000000000000000000 ) ) ;
#166 = SECURITY_CLASSIFICATION_LEVEL ( 'unclassified' ) ;
#167 = ORIENTED_EDGE ( 'NONE', *, *, #63, .F. ) ;
#168 = DATE_AND_TIME ( #31, #53 ) ;
#169 = PERSON_AND_ORGANIZATION_ROLE ( 'classification_officer' ) ;
#170 = LINE ( 'NONE', #224, #13 ) ;
#171 = PLANE ( 'NONE',  #33 ) ;
#172 = CARTESIAN_POINT ( 'NONE',  ( 0.0000000000000000000, 0.0000000000000000000, 500.0000000000000000 ) ) ;
#173 = ORIENTED_EDGE ( 'NONE', *, *, #78, .F. ) ;
#174 = CARTESIAN_POINT ( 'NONE',  ( 20.00000000000000400, 6.000000000000000000, 500.0000000000000000 ) ) ;
#175 = CARTESIAN_POINT ( 'NONE',  ( 20.00000000000000400, 6.000000000000000000, 500.0000000000000000 ) ) ;
#176 = CARTESIAN_POINT ( 'NONE',  ( 20.00000000000000000, -6.000000000000000000, -500.0000000000000000 ) ) ;
#177 = CARTESIAN_POINT ( 'NONE',  ( -19.99999999999999600, 6.000000000000000000, -500.0000000000000000 ) ) ;
#178 = CARTESIAN_POINT ( 'NONE',  ( -19.99999999999999600, 6.000000000000000000, 500.0000000000000000 ) ) ;
#179 = CARTESIAN_POINT ( 'NONE',  ( -19.99999999999999300, -6.000000000000000000, -500.0000000000000000 ) ) ;
#180 = DIRECTION ( 'NONE',  ( -1.000000000000000000, -0.0000000000000000000, -0.0000000000000000000 ) ) ;
#181 = CARTESIAN_POINT ( 'NONE',  ( 20.00000000000000400, 6.000000000000000000, -500.0000000000000000 ) ) ;
#182 = CARTESIAN_POINT ( 'NONE',  ( -19.99999999999999300, -6.000000000000000000, 500.0000000000000000 ) ) ;
#183 = DIRECTION ( 'NONE',  ( -2.891205793294678300E-016, -1.000000000000000000, 0.0000000000000000000 ) ) ;
#184 = ORIENTED_EDGE ( 'NONE', *, *, #64, .F. ) ;
#185 =( LENGTH_UNIT ( ) NAMED_UNIT ( * ) SI_UNIT ( .MILLI., .METRE. ) );
#186 = LINE ( 'NONE', #229, #38 ) ;
#187 = PERSON_AND_ORGANIZATION ( #3, #36 ) ;
#188 = LINE ( 'NONE', #157, #48 ) ;
#189 = CARTESIAN_POINT ( 'NONE',  ( 20.00000000000000400, 6.000000000000000000, -500.0000000000000000 ) ) ;
#190 = ORIENTED_EDGE ( 'NONE', *, *, #74, .F. ) ;
#191 = PERSON_AND_ORGANIZATION_ROLE ( 'creator' ) ;
#192 = DIRECTION ( 'NONE',  ( 2.891205793294678300E-016, -1.000000000000000000, 0.0000000000000000000 ) ) ;
#193 = DATE_TIME_ROLE ( 'classification_date' ) ;
#194 = ORIENTED_EDGE ( 'NONE', *, *, #54, .T. ) ;
#195 = DIRECTION ( 'NONE',  ( 1.000000000000000000, 0.0000000000000000000, 0.0000000000000000000 ) ) ;
#196 = CARTESIAN_POINT ( 'NONE',  ( -19.99999999999999300, -6.000000000000000000, 500.0000000000000000 ) ) ;
#197 = VERTEX_POINT ( 'NONE', #177 ) ;
#198 = APPROVAL_DATE_TIME ( #156, #77 ) ;
#199 = DIRECTION ( 'NONE',  ( -1.000000000000000000, -0.0000000000000000000, -0.0000000000000000000 ) ) ;
#200 = ORIENTED_EDGE ( 'NONE', *, *, #60, .T. ) ;
#201 = ORIENTED_EDGE ( 'NONE', *, *, #67, .F. ) ;
#202 = ORIENTED_EDGE ( 'NONE', *, *, #60, .F. ) ;
#203 = PERSON_AND_ORGANIZATION ( #3, #36 ) ;
#204 = ORIENTED_EDGE ( 'NONE', *, *, #78, .T. ) ;
#205 = DIRECTION ( 'NONE',  ( 2.891205793294678300E-016, 1.000000000000000000, -0.0000000000000000000 ) ) ;
#206 = DIRECTION ( 'NONE',  ( 0.0000000000000000000, 0.0000000000000000000, 1.000000000000000000 ) ) ;
#207 = PLANE ( 'NONE',  #18 ) ;
#208 = APPROVAL_DATE_TIME ( #236, #50 ) ;
#209 = DIRECTION ( 'NONE',  ( -0.0000000000000000000, -0.0000000000000000000, -1.000000000000000000 ) ) ;
#210 = VERTEX_POINT ( 'NONE', #217 ) ;
#211 = DIRECTION ( 'NONE',  ( -0.0000000000000000000, -0.0000000000000000000, -1.000000000000000000 ) ) ;
#212 = DIRECTION ( 'NONE',  ( -0.0000000000000000000, 0.0000000000000000000, 1.000000000000000000 ) ) ;
#213 = DATE_AND_TIME ( #22, #61 ) ;
#214 = LINE ( 'NONE', #115, #30 ) ;
#215 = APPLICATION_PROTOCOL_DEFINITION ( 'international standard', 'config_control_design', 1994, #85 ) ;
#216 = DIRECTION ( 'NONE',  ( 0.0000000000000000000, -1.000000000000000000, 0.0000000000000000000 ) ) ;
#217 = CARTESIAN_POINT ( 'NONE',  ( 20.00000000000000000, -6.000000000000000000, 500.0000000000000000 ) ) ;
#218 = DIRECTION ( 'NONE',  ( 0.0000000000000000000, -0.0000000000000000000, 1.000000000000000000 ) ) ;
#219 = PLANE ( 'NONE',  #24 ) ;
#220 = ORIENTED_EDGE ( 'NONE', *, *, #75, .T. ) ;
#221 = LINE ( 'NONE', #196, #9 ) ;
#222 = LINE ( 'NONE', #119, #47 ) ;
#223 = SHAPE_DEFINITION_REPRESENTATION ( #88, #1 ) ;
#224 = CARTESIAN_POINT ( 'NONE',  ( -19.99999999999999600, 6.000000000000000000, 500.0000000000000000 ) ) ;
#225 = PERSON_AND_ORGANIZATION ( #3, #36 ) ;
#226 = ORIENTED_EDGE ( 'NONE', *, *, #83, .T. ) ;
#227 = CARTESIAN_POINT ( 'NONE',  ( -19.99999999999999300, -6.000000000000000000, 500.0000000000000000 ) ) ;
#228 = ORIENTED_EDGE ( 'NONE', *, *, #54, .F. ) ;
#229 = CARTESIAN_POINT ( 'NONE',  ( 20.00000000000000000, -6.000000000000000000, 500.0000000000000000 ) ) ;
#230 = APPROVAL_ROLE ( '' ) ;
#231 = CARTESIAN_POINT ( 'NONE',  ( 0.0000000000000000000, 0.0000000000000000000, -500.0000000000000000 ) ) ;
#232 = DATE_TIME_ROLE ( 'creation_date' ) ;
#233 = LINE ( 'NONE', #175, #43 ) ;
#234 = APPROVAL_STATUS ( 'not_yet_approved' ) ;
#235 = ORIENTED_EDGE ( 'NONE', *, *, #55, .T. ) ;
#236 = DATE_AND_TIME ( #29, #84 ) ;
#237 = DIRECTION ( 'NONE',  ( 2.891205793294678300E-016, 1.000000000000000000, -0.0000000000000000000 ) ) ;
ENDSEC;
END-ISO-10303-21;
