ISO-10303-21;
HEADER;
FILE_DESCRIPTION (( 'STEP AP203' ),
    '1' );
FILE_NAME ('sone3D.STEP',
    '2015-08-11T10:25:21',
    ( '' ),
    ( '' ),
    'SwSTEP 2.0',
    'SolidWorks 2012',
    '' );
FILE_SCHEMA (( 'CONFIG_CONTROL_DESIGN' ));
ENDSEC;

DATA;
#1 = APPLICATION_CONTEXT ( 'configuration controlled 3d designs of mechanical parts and assemblies' ) ;
#2 = APPLICATION_CONTEXT ( 'configuration controlled 3d designs of mechanical parts and assemblies' ) ;
#3 = VERTEX_POINT ( 'NONE', #135 ) ;
#4 = VERTEX_POINT ( 'NONE', #105 ) ;
#5 = VERTEX_POINT ( 'NONE', #161 ) ;
#6 = VERTEX_POINT ( 'NONE', #109 ) ;
#7 = VERTEX_POINT ( 'NONE', #114 ) ;
#8 = UNCERTAINTY_MEASURE_WITH_UNIT (LENGTH_MEASURE( 1.000000000000000100E-005 ), #131, 'distance_accuracy_value', 'NONE');
#9 = ADVANCED_BREP_SHAPE_REPRESENTATION ( 'sone3D', ( #94, #19 ), #92 ) ;
#10 = PERSON ( 'UNSPECIFIED', 'UNSPECIFIED', 'UNSPECIFIED', ('UNSPECIFIED'), ('UNSPECIFIED'), ('UNSPECIFIED') ) ;
#11 = VECTOR ( 'NONE', #122, 1000.000000000000000 ) ;
#12 = COORDINATED_UNIVERSAL_TIME_OFFSET ( 9, 0, .AHEAD. ) ;
#13 = ORGANIZATION ( 'UNSPECIFIED', 'UNSPECIFIED', '' ) ;
#14 = FACE_OUTER_BOUND ( 'NONE', #214, .T. ) ;
#15 = FACE_OUTER_BOUND ( 'NONE', #209, .T. ) ;
#16 = FACE_OUTER_BOUND ( 'NONE', #223, .T. ) ;
#17 = CC_DESIGN_SECURITY_CLASSIFICATION ( #53, ( #56 ) ) ;
#18 = CC_DESIGN_APPROVAL ( #72, ( #79 ) ) ;
#19 = AXIS2_PLACEMENT_3D ( 'NONE', #213, #206, #218 ) ;
#20 = VECTOR ( 'NONE', #154, 1000.000000000000000 ) ;
#21 = VECTOR ( 'NONE', #176, 1000.000000000000000 ) ;
#22 = CALENDAR_DATE ( 2015, 11, 8 ) ;
#23 = VECTOR ( 'NONE', #132, 1000.000000000000000 ) ;
#24 = AXIS2_PLACEMENT_3D ( 'NONE', #187, #188, #189 ) ;
#25 = VECTOR ( 'NONE', #141, 1000.000000000000000 ) ;
#26 = AXIS2_PLACEMENT_3D ( 'NONE', #171, #179, #233 ) ;
#27 = APPROVAL_PERSON_ORGANIZATION ( #100, #84, #149 ) ;
#28 = CC_DESIGN_APPROVAL ( #84, ( #56 ) ) ;
#29 = CALENDAR_DATE ( 2015, 11, 8 ) ;
#30 = VECTOR ( 'NONE', #184, 1000.000000000000000 ) ;
#31 = COORDINATED_UNIVERSAL_TIME_OFFSET ( 9, 0, .AHEAD. ) ;
#32 = AXIS2_PLACEMENT_3D ( 'NONE', #230, #234, #236 ) ;
#33 = AXIS2_PLACEMENT_3D ( 'NONE', #119, #158, #163 ) ;
#34 = VECTOR ( 'NONE', #148, 1000.000000000000000 ) ;
#35 = VECTOR ( 'NONE', #178, 1000.000000000000000 ) ;
#36 = CC_DESIGN_APPROVAL ( #87, ( #53 ) ) ;
#37 = APPROVAL_PERSON_ORGANIZATION ( #124, #72, #177 ) ;
#38 = APPROVAL_PERSON_ORGANIZATION ( #99, #87, #137 ) ;
#39 = CALENDAR_DATE ( 2015, 11, 8 ) ;
#40 = FACE_OUTER_BOUND ( 'NONE', #219, .T. ) ;
#41 = VECTOR ( 'NONE', #157, 1000.000000000000000 ) ;
#42 = COORDINATED_UNIVERSAL_TIME_OFFSET ( 9, 0, .AHEAD. ) ;
#43 = COORDINATED_UNIVERSAL_TIME_OFFSET ( 9, 0, .AHEAD. ) ;
#44 = FACE_OUTER_BOUND ( 'NONE', #222, .T. ) ;
#45 = CALENDAR_DATE ( 2015, 11, 8 ) ;
#46 = COORDINATED_UNIVERSAL_TIME_OFFSET ( 9, 0, .AHEAD. ) ;
#47 = AXIS2_PLACEMENT_3D ( 'NONE', #108, #110, #106 ) ;
#48 = FACE_OUTER_BOUND ( 'NONE', #226, .T. ) ;
#49 = CALENDAR_DATE ( 2015, 11, 8 ) ;
#50 = VECTOR ( 'NONE', #203, 1000.000000000000000 ) ;
#51 = VECTOR ( 'NONE', #197, 1000.000000000000000 ) ;
#52 = AXIS2_PLACEMENT_3D ( 'NONE', #205, #192, #127 ) ;
#53 = SECURITY_CLASSIFICATION ( '', '', #199 ) ;
#54 = CLOSED_SHELL ( 'NONE', ( #74, #86, #75, #69, #66, #64 ) ) ;
#55 = VECTOR ( 'NONE', #164, 1000.000000000000000 ) ;
#56 = PRODUCT_DEFINITION_FORMATION_WITH_SPECIFIED_SOURCE ( 'ANY', '', #96, .NOT_KNOWN. ) ;
#57 = EDGE_CURVE ( 'NONE', #4, #3, #117, .T. ) ;
#58 = EDGE_CURVE ( 'NONE', #7, #5, #129, .T. ) ;
#59 = LOCAL_TIME ( 19, 25, 21.00000000000000000, #43 ) ;
#60 = EDGE_CURVE ( 'NONE', #6, #3, #133, .T. ) ;
#61 = EDGE_CURVE ( 'NONE', #3, #208, #150, .T. ) ;
#62 = CC_DESIGN_PERSON_AND_ORGANIZATION_ASSIGNMENT ( #143, #116, ( #79 ) ) ;
#63 = CC_DESIGN_PERSON_AND_ORGANIZATION_ASSIGNMENT ( #144, #186, ( #56 ) ) ;
#64 = ADVANCED_FACE ( 'NONE', ( #14 ), #126, .F. ) ;
#65 = PRODUCT_RELATED_PRODUCT_CATEGORY ( 'detail', '', ( #96 ) ) ;
#66 = ADVANCED_FACE ( 'NONE', ( #48 ), #169, .T. ) ;
#67 = CC_DESIGN_PERSON_AND_ORGANIZATION_ASSIGNMENT ( #147, #220, ( #96 ) ) ;
#68 = EDGE_CURVE ( 'NONE', #207, #208, #180, .T. ) ;
#69 = ADVANCED_FACE ( 'NONE', ( #16 ), #185, .F. ) ;
#70 = EDGE_CURVE ( 'NONE', #208, #210, #194, .T. ) ;
#71 = CC_DESIGN_DATE_AND_TIME_ASSIGNMENT ( #151, #104, ( #53 ) ) ;
#72 = APPROVAL ( #134, 'UNSPECIFIED' ) ;
#73 = EDGE_CURVE ( 'NONE', #5, #6, #202, .T. ) ;
#74 = ADVANCED_FACE ( 'NONE', ( #44 ), #200, .F. ) ;
#75 = ADVANCED_FACE ( 'NONE', ( #40 ), #229, .F. ) ;
#76 = CC_DESIGN_DATE_AND_TIME_ASSIGNMENT ( #152, #98, ( #79 ) ) ;
#77 = EDGE_CURVE ( 'NONE', #207, #7, #237, .T. ) ;
#78 = LOCAL_TIME ( 19, 25, 21.00000000000000000, #46 ) ;
#79 = PRODUCT_DEFINITION ( 'UNKNOWN', '', #56, #93 ) ;
#80 = EDGE_CURVE ( 'NONE', #7, #210, #170, .T. ) ;
#81 = CC_DESIGN_PERSON_AND_ORGANIZATION_ASSIGNMENT ( #146, #139, ( #56 ) ) ;
#82 = LOCAL_TIME ( 19, 25, 21.00000000000000000, #12 ) ;
#83 = EDGE_CURVE ( 'NONE', #4, #207, #102, .T. ) ;
#84 = APPROVAL ( #97, 'UNSPECIFIED' ) ;
#85 = LOCAL_TIME ( 19, 25, 21.00000000000000000, #31 ) ;
#86 = ADVANCED_FACE ( 'NONE', ( #15 ), #174, .F. ) ;
#87 = APPROVAL ( #235, 'UNSPECIFIED' ) ;
#88 = CC_DESIGN_PERSON_AND_ORGANIZATION_ASSIGNMENT ( #195, #168, ( #53 ) ) ;
#89 = LOCAL_TIME ( 19, 25, 21.00000000000000000, #42 ) ;
#90 = EDGE_CURVE ( 'NONE', #5, #4, #107, .T. ) ;
#91 = EDGE_CURVE ( 'NONE', #210, #6, #111, .T. ) ;
#92 =( GEOMETRIC_REPRESENTATION_CONTEXT ( 3 ) GLOBAL_UNCERTAINTY_ASSIGNED_CONTEXT ( ( #8 ) ) GLOBAL_UNIT_ASSIGNED_CONTEXT ( ( #131, #198, #155 ) ) REPRESENTATION_CONTEXT ( 'NONE', 'WORKASPACE' ) );
#93 = DESIGN_CONTEXT ( 'detailed design', #2, 'design' ) ;
#94 = MANIFOLD_SOLID_BREP ( 'ÎÞ½ - µoµ1', #54 ) ;
#95 = PRODUCT_DEFINITION_SHAPE ( 'NONE', 'NONE',  #79 ) ;
#96 = PRODUCT ( 'sone3D', 'sone3D', '', ( #181 ) ) ;
#97 = APPROVAL_STATUS ( 'not_yet_approved' ) ;
#98 = DATE_TIME_ROLE ( 'creation_date' ) ;
#99 = PERSON_AND_ORGANIZATION ( #10, #13 ) ;
#100 = PERSON_AND_ORGANIZATION ( #10, #13 ) ;
#101 = APPROVAL_DATE_TIME ( #167, #84 ) ;
#102 = LINE ( 'NONE', #175, #21 ) ;
#103 = DATE_AND_TIME ( #39, #89 ) ;
#104 = DATE_TIME_ROLE ( 'classification_date' ) ;
#105 = CARTESIAN_POINT ( 'NONE',  ( -17.50000000000000400, 6.000000000000000900, 500.0000000000000000 ) ) ;
#106 = DIRECTION ( 'NONE',  ( 0.0000000000000000000, -0.0000000000000000000, 1.000000000000000000 ) ) ;
#107 = LINE ( 'NONE', #162, #55 ) ;
#108 = CARTESIAN_POINT ( 'NONE',  ( -17.50000000000000000, -5.999999999999999100, 500.0000000000000000 ) ) ;
#109 = CARTESIAN_POINT ( 'NONE',  ( 17.49999999999999600, 6.000000000000000900, -500.0000000000000000 ) ) ;
#110 = DIRECTION ( 'NONE',  ( 0.0000000000000000000, 1.000000000000000000, 0.0000000000000000000 ) ) ;
#111 = LINE ( 'NONE', #112, #41 ) ;
#112 = CARTESIAN_POINT ( 'NONE',  ( 17.49999999999999600, 6.000000000000000900, -500.0000000000000000 ) ) ;
#113 = ORIENTED_EDGE ( 'NONE', *, *, #68, .F. ) ;
#114 = CARTESIAN_POINT ( 'NONE',  ( 17.49999999999999600, -5.999999999999999100, 500.0000000000000000 ) ) ;
#115 = ORIENTED_EDGE ( 'NONE', *, *, #61, .F. ) ;
#116 = PERSON_AND_ORGANIZATION_ROLE ( 'creator' ) ;
#117 = LINE ( 'NONE', #118, #11 ) ;
#118 = CARTESIAN_POINT ( 'NONE',  ( -17.50000000000000400, 6.000000000000000900, 500.0000000000000000 ) ) ;
#119 = CARTESIAN_POINT ( 'NONE',  ( 0.0000000000000000000, 0.0000000000000000000, -500.0000000000000000 ) ) ;
#120 = ORIENTED_EDGE ( 'NONE', *, *, #80, .F. ) ;
#121 = ORIENTED_EDGE ( 'NONE', *, *, #60, .F. ) ;
#122 = DIRECTION ( 'NONE',  ( -0.0000000000000000000, -0.0000000000000000000, -1.000000000000000000 ) ) ;
#123 = ORIENTED_EDGE ( 'NONE', *, *, #68, .T. ) ;
#124 = PERSON_AND_ORGANIZATION ( #10, #13 ) ;
#125 = DATE_AND_TIME ( #49, #82 ) ;
#126 = PLANE ( 'NONE',  #33 ) ;
#127 = DIRECTION ( 'NONE',  ( -2.891205793294678300E-016, 1.000000000000000000, 0.0000000000000000000 ) ) ;
#128 = ORIENTED_EDGE ( 'NONE', *, *, #57, .T. ) ;
#129 = LINE ( 'NONE', #130, #23 ) ;
#130 = CARTESIAN_POINT ( 'NONE',  ( 17.49999999999999600, 6.000000000000000900, 500.0000000000000000 ) ) ;
#131 =( LENGTH_UNIT ( ) NAMED_UNIT ( * ) SI_UNIT ( .MILLI., .METRE. ) );
#132 = DIRECTION ( 'NONE',  ( -0.0000000000000000000, 1.000000000000000000, -0.0000000000000000000 ) ) ;
#133 = LINE ( 'NONE', #142, #34 ) ;
#134 = APPROVAL_STATUS ( 'not_yet_approved' ) ;
#135 = CARTESIAN_POINT ( 'NONE',  ( -17.50000000000000400, 6.000000000000000900, -500.0000000000000000 ) ) ;
#136 = ORIENTED_EDGE ( 'NONE', *, *, #70, .F. ) ;
#137 = APPROVAL_ROLE ( '' ) ;
#138 = ORIENTED_EDGE ( 'NONE', *, *, #58, .T. ) ;
#139 = PERSON_AND_ORGANIZATION_ROLE ( 'design_supplier' ) ;
#140 = APPROVAL_DATE_TIME ( #103, #87 ) ;
#141 = DIRECTION ( 'NONE',  ( 1.000000000000000000, 0.0000000000000000000, 0.0000000000000000000 ) ) ;
#142 = CARTESIAN_POINT ( 'NONE',  ( -17.50000000000000400, 6.000000000000000900, -500.0000000000000000 ) ) ;
#143 = PERSON_AND_ORGANIZATION ( #10, #13 ) ;
#144 = PERSON_AND_ORGANIZATION ( #10, #13 ) ;
#145 = ORIENTED_EDGE ( 'NONE', *, *, #73, .T. ) ;
#146 = PERSON_AND_ORGANIZATION ( #10, #13 ) ;
#147 = PERSON_AND_ORGANIZATION ( #10, #13 ) ;
#148 = DIRECTION ( 'NONE',  ( -1.000000000000000000, -0.0000000000000000000, -0.0000000000000000000 ) ) ;
#149 = APPROVAL_ROLE ( '' ) ;
#150 = LINE ( 'NONE', #153, #20 ) ;
#151 = DATE_AND_TIME ( #29, #59 ) ;
#152 = DATE_AND_TIME ( #22, #85 ) ;
#153 = CARTESIAN_POINT ( 'NONE',  ( -17.50000000000000400, 6.000000000000000900, -500.0000000000000000 ) ) ;
#154 = DIRECTION ( 'NONE',  ( 2.891205793294678300E-016, -1.000000000000000000, 0.0000000000000000000 ) ) ;
#155 =( NAMED_UNIT ( * ) SI_UNIT ( $, .STERADIAN. ) SOLID_ANGLE_UNIT ( ) );
#156 = ORIENTED_EDGE ( 'NONE', *, *, #77, .T. ) ;
#157 = DIRECTION ( 'NONE',  ( -0.0000000000000000000, 1.000000000000000000, -0.0000000000000000000 ) ) ;
#158 = DIRECTION ( 'NONE',  ( -0.0000000000000000000, 0.0000000000000000000, 1.000000000000000000 ) ) ;
#159 = CARTESIAN_POINT ( 'NONE',  ( -17.50000000000000000, -5.999999999999999100, -500.0000000000000000 ) ) ;
#160 = CARTESIAN_POINT ( 'NONE',  ( -17.50000000000000000, -5.999999999999999100, 500.0000000000000000 ) ) ;
#161 = CARTESIAN_POINT ( 'NONE',  ( 17.49999999999999600, 6.000000000000000900, 500.0000000000000000 ) ) ;
#162 = CARTESIAN_POINT ( 'NONE',  ( -17.50000000000000400, 6.000000000000000900, 500.0000000000000000 ) ) ;
#163 = DIRECTION ( 'NONE',  ( 1.000000000000000000, 0.0000000000000000000, 0.0000000000000000000 ) ) ;
#164 = DIRECTION ( 'NONE',  ( -1.000000000000000000, -0.0000000000000000000, -0.0000000000000000000 ) ) ;
#165 = ORIENTED_EDGE ( 'NONE', *, *, #91, .F. ) ;
#166 = CARTESIAN_POINT ( 'NONE',  ( 17.49999999999999600, -5.999999999999999100, -500.0000000000000000 ) ) ;
#167 = DATE_AND_TIME ( #45, #78 ) ;
#168 = PERSON_AND_ORGANIZATION_ROLE ( 'classification_officer' ) ;
#169 = PLANE ( 'NONE',  #26 ) ;
#170 = LINE ( 'NONE', #172, #35 ) ;
#171 = CARTESIAN_POINT ( 'NONE',  ( 0.0000000000000000000, 0.0000000000000000000, 500.0000000000000000 ) ) ;
#172 = CARTESIAN_POINT ( 'NONE',  ( 17.49999999999999600, -5.999999999999999100, 500.0000000000000000 ) ) ;
#173 = CARTESIAN_POINT ( 'NONE',  ( -17.50000000000000000, -5.999999999999999100, 500.0000000000000000 ) ) ;
#174 = PLANE ( 'NONE',  #47 ) ;
#175 = CARTESIAN_POINT ( 'NONE',  ( -17.50000000000000400, 6.000000000000000900, 500.0000000000000000 ) ) ;
#176 = DIRECTION ( 'NONE',  ( 2.891205793294678300E-016, -1.000000000000000000, 0.0000000000000000000 ) ) ;
#177 = APPROVAL_ROLE ( '' ) ;
#178 = DIRECTION ( 'NONE',  ( -0.0000000000000000000, -0.0000000000000000000, -1.000000000000000000 ) ) ;
#179 = DIRECTION ( 'NONE',  ( -0.0000000000000000000, 0.0000000000000000000, 1.000000000000000000 ) ) ;
#180 = LINE ( 'NONE', #183, #30 ) ;
#181 = MECHANICAL_CONTEXT ( 'NONE', #1, 'mechanical' ) ;
#182 = ORIENTED_EDGE ( 'NONE', *, *, #77, .F. ) ;
#183 = CARTESIAN_POINT ( 'NONE',  ( -17.50000000000000000, -5.999999999999999100, 500.0000000000000000 ) ) ;
#184 = DIRECTION ( 'NONE',  ( -0.0000000000000000000, -0.0000000000000000000, -1.000000000000000000 ) ) ;
#185 = PLANE ( 'NONE',  #24 ) ;
#186 = PERSON_AND_ORGANIZATION_ROLE ( 'creator' ) ;
#187 = CARTESIAN_POINT ( 'NONE',  ( -17.50000000000000400, 6.000000000000000900, 500.0000000000000000 ) ) ;
#188 = DIRECTION ( 'NONE',  ( 0.0000000000000000000, -1.000000000000000000, 0.0000000000000000000 ) ) ;
#189 = DIRECTION ( 'NONE',  ( 0.0000000000000000000, -0.0000000000000000000, -1.000000000000000000 ) ) ;
#190 = APPLICATION_PROTOCOL_DEFINITION ( 'international standard', 'config_control_design', 1994, #2 ) ;
#191 = CARTESIAN_POINT ( 'NONE',  ( -17.50000000000000000, -5.999999999999999100, -500.0000000000000000 ) ) ;
#192 = DIRECTION ( 'NONE',  ( 1.000000000000000000, 2.891205793294678300E-016, -0.0000000000000000000 ) ) ;
#193 = ORIENTED_EDGE ( 'NONE', *, *, #83, .T. ) ;
#194 = LINE ( 'NONE', #191, #51 ) ;
#195 = PERSON_AND_ORGANIZATION ( #10, #13 ) ;
#196 = APPROVAL_DATE_TIME ( #125, #72 ) ;
#197 = DIRECTION ( 'NONE',  ( 1.000000000000000000, 0.0000000000000000000, 0.0000000000000000000 ) ) ;
#198 =( NAMED_UNIT ( * ) PLANE_ANGLE_UNIT ( ) SI_UNIT ( $, .RADIAN. ) );
#199 = SECURITY_CLASSIFICATION_LEVEL ( 'unclassified' ) ;
#200 = PLANE ( 'NONE',  #52 ) ;
#201 = ORIENTED_EDGE ( 'NONE', *, *, #83, .F. ) ;
#202 = LINE ( 'NONE', #231, #50 ) ;
#203 = DIRECTION ( 'NONE',  ( -0.0000000000000000000, -0.0000000000000000000, -1.000000000000000000 ) ) ;
#204 = ORIENTED_EDGE ( 'NONE', *, *, #90, .T. ) ;
#205 = CARTESIAN_POINT ( 'NONE',  ( -17.50000000000000400, 6.000000000000000900, 500.0000000000000000 ) ) ;
#206 = DIRECTION ( 'NONE',  ( 0.0000000000000000000, 0.0000000000000000000, 1.000000000000000000 ) ) ;
#207 = VERTEX_POINT ( 'NONE', #160 ) ;
#208 = VERTEX_POINT ( 'NONE', #159 ) ;
#209 = EDGE_LOOP ( 'NONE', ( #215, #120, #182, #123 ) ) ;
#210 = VERTEX_POINT ( 'NONE', #166 ) ;
#211 = APPLICATION_PROTOCOL_DEFINITION ( 'international standard', 'config_control_design', 1994, #1 ) ;
#212 = ORIENTED_EDGE ( 'NONE', *, *, #73, .F. ) ;
#213 = CARTESIAN_POINT ( 'NONE',  ( 0.0000000000000000000, 0.0000000000000000000, 0.0000000000000000000 ) ) ;
#214 = EDGE_LOOP ( 'NONE', ( #115, #121, #165, #136 ) ) ;
#215 = ORIENTED_EDGE ( 'NONE', *, *, #70, .T. ) ;
#216 = ORIENTED_EDGE ( 'NONE', *, *, #90, .F. ) ;
#217 = ORIENTED_EDGE ( 'NONE', *, *, #60, .T. ) ;
#218 = DIRECTION ( 'NONE',  ( 1.000000000000000000, 0.0000000000000000000, 0.0000000000000000000 ) ) ;
#219 = EDGE_LOOP ( 'NONE', ( #228, #212, #227, #221 ) ) ;
#220 = PERSON_AND_ORGANIZATION_ROLE ( 'design_owner' ) ;
#221 = ORIENTED_EDGE ( 'NONE', *, *, #80, .T. ) ;
#222 = EDGE_LOOP ( 'NONE', ( #232, #113, #201, #128 ) ) ;
#223 = EDGE_LOOP ( 'NONE', ( #217, #225, #216, #145 ) ) ;
#224 = SHAPE_DEFINITION_REPRESENTATION ( #95, #9 ) ;
#225 = ORIENTED_EDGE ( 'NONE', *, *, #57, .F. ) ;
#226 = EDGE_LOOP ( 'NONE', ( #193, #156, #138, #204 ) ) ;
#227 = ORIENTED_EDGE ( 'NONE', *, *, #58, .F. ) ;
#228 = ORIENTED_EDGE ( 'NONE', *, *, #91, .T. ) ;
#229 = PLANE ( 'NONE',  #32 ) ;
#230 = CARTESIAN_POINT ( 'NONE',  ( 17.49999999999999600, 6.000000000000000900, 500.0000000000000000 ) ) ;
#231 = CARTESIAN_POINT ( 'NONE',  ( 17.49999999999999600, 6.000000000000000900, 500.0000000000000000 ) ) ;
#232 = ORIENTED_EDGE ( 'NONE', *, *, #61, .T. ) ;
#233 = DIRECTION ( 'NONE',  ( 1.000000000000000000, 0.0000000000000000000, 0.0000000000000000000 ) ) ;
#234 = DIRECTION ( 'NONE',  ( -1.000000000000000000, 0.0000000000000000000, 0.0000000000000000000 ) ) ;
#235 = APPROVAL_STATUS ( 'not_yet_approved' ) ;
#236 = DIRECTION ( 'NONE',  ( 0.0000000000000000000, 0.0000000000000000000, 1.000000000000000000 ) ) ;
#237 = LINE ( 'NONE', #173, #25 ) ;
ENDSEC;
END-ISO-10303-21;
