ISO-10303-21;
HEADER;
FILE_DESCRIPTION (( 'STEP AP203' ),
    '1' );
FILE_NAME ('sone3D.STEP',
    '2015-08-11T10:24:49',
    ( '' ),
    ( '' ),
    'SwSTEP 2.0',
    'SolidWorks 2012',
    '' );
FILE_SCHEMA (( 'CONFIG_CONTROL_DESIGN' ));
ENDSEC;

DATA;
#1 = APPLICATION_CONTEXT ( 'configuration controlled 3d designs of mechanical parts and assemblies' ) ;
#2 = APPLICATION_CONTEXT ( 'configuration controlled 3d designs of mechanical parts and assemblies' ) ;
#3 = VERTEX_POINT ( 'NONE', #41 ) ;
#4 = VERTEX_POINT ( 'NONE', #42 ) ;
#5 = VERTEX_POINT ( 'NONE', #43 ) ;
#6 = VERTEX_POINT ( 'NONE', #44 ) ;
#7 = VERTEX_POINT ( 'NONE', #45 ) ;
#8 = VERTEX_POINT ( 'NONE', #46 ) ;
#9 = VERTEX_POINT ( 'NONE', #47 ) ;
#10 = VERTEX_POINT ( 'NONE', #48 ) ;
#11 = EDGE_LOOP ( 'NONE', ( #25, #30, #34, #22 ) ) ;
#12 = EDGE_LOOP ( 'NONE', ( #39, #23, #24, #18 ) ) ;
#13 = EDGE_LOOP ( 'NONE', ( #31, #36, #40, #27 ) ) ;
#14 = EDGE_LOOP ( 'NONE', ( #21, #29, #32, #28 ) ) ;
#15 = EDGE_LOOP ( 'NONE', ( #26, #20, #19, #17 ) ) ;
#16 = EDGE_LOOP ( 'NONE', ( #33, #37, #35, #38 ) ) ;
#17 = ORIENTED_EDGE ( 'NONE', *, *, #170, .T. ) ;
#18 = ORIENTED_EDGE ( 'NONE', *, *, #184, .T. ) ;
#19 = ORIENTED_EDGE ( 'NONE', *, *, #163, .F. ) ;
#20 = ORIENTED_EDGE ( 'NONE', *, *, #181, .F. ) ;
#21 = ORIENTED_EDGE ( 'NONE', *, *, #175, .T. ) ;
#22 = ORIENTED_EDGE ( 'NONE', *, *, #181, .T. ) ;
#23 = ORIENTED_EDGE ( 'NONE', *, *, #169, .T. ) ;
#24 = ORIENTED_EDGE ( 'NONE', *, *, #163, .T. ) ;
#25 = ORIENTED_EDGE ( 'NONE', *, *, #177, .T. ) ;
#26 = ORIENTED_EDGE ( 'NONE', *, *, #158, .T. ) ;
#27 = ORIENTED_EDGE ( 'NONE', *, *, #175, .F. ) ;
#28 = ORIENTED_EDGE ( 'NONE', *, *, #174, .T. ) ;
#29 = ORIENTED_EDGE ( 'NONE', *, *, #170, .F. ) ;
#30 = ORIENTED_EDGE ( 'NONE', *, *, #160, .F. ) ;
#31 = ORIENTED_EDGE ( 'NONE', *, *, #173, .F. ) ;
#32 = ORIENTED_EDGE ( 'NONE', *, *, #169, .F. ) ;
#33 = ORIENTED_EDGE ( 'NONE', *, *, #173, .T. ) ;
#34 = ORIENTED_EDGE ( 'NONE', *, *, #184, .F. ) ;
#35 = ORIENTED_EDGE ( 'NONE', *, *, #157, .F. ) ;
#36 = ORIENTED_EDGE ( 'NONE', *, *, #177, .F. ) ;
#37 = ORIENTED_EDGE ( 'NONE', *, *, #174, .F. ) ;
#38 = ORIENTED_EDGE ( 'NONE', *, *, #160, .T. ) ;
#39 = ORIENTED_EDGE ( 'NONE', *, *, #157, .T. ) ;
#40 = ORIENTED_EDGE ( 'NONE', *, *, #158, .F. ) ;
#41 = CARTESIAN_POINT ( 'NONE',  ( 15.00000000000000000, -6.000000000000000900, 500.0000000000000000 ) ) ;
#42 = CARTESIAN_POINT ( 'NONE',  ( 15.00000000000000000, -6.000000000000000900, -500.0000000000000000 ) ) ;
#43 = CARTESIAN_POINT ( 'NONE',  ( 14.99999999999999500, 5.999999999999999100, -500.0000000000000000 ) ) ;
#44 = CARTESIAN_POINT ( 'NONE',  ( -15.00000000000000500, -6.000000000000000900, -500.0000000000000000 ) ) ;
#45 = CARTESIAN_POINT ( 'NONE',  ( -15.00000000000000500, -6.000000000000000900, 500.0000000000000000 ) ) ;
#46 = CARTESIAN_POINT ( 'NONE',  ( -15.00000000000000500, 5.999999999999999100, 500.0000000000000000 ) ) ;
#47 = CARTESIAN_POINT ( 'NONE',  ( 14.99999999999999500, 5.999999999999999100, 500.0000000000000000 ) ) ;
#48 = CARTESIAN_POINT ( 'NONE',  ( -15.00000000000000500, 5.999999999999999100, -500.0000000000000000 ) ) ;
#49 = LINE ( 'NONE', #50, #111 ) ;
#50 = CARTESIAN_POINT ( 'NONE',  ( -15.00000000000000500, 5.999999999999999100, 500.0000000000000000 ) ) ;
#51 = DIRECTION ( 'NONE',  ( 0.0000000000000000000, -1.000000000000000000, 0.0000000000000000000 ) ) ;
#52 = PLANE ( 'NONE',  #149 ) ;
#53 = LINE ( 'NONE', #54, #142 ) ;
#54 = CARTESIAN_POINT ( 'NONE',  ( 14.99999999999999500, 5.999999999999999100, -500.0000000000000000 ) ) ;
#55 = DIRECTION ( 'NONE',  ( -4.336808689942017700E-016, 1.000000000000000000, -0.0000000000000000000 ) ) ;
#56 = LINE ( 'NONE', #57, #120 ) ;
#57 = CARTESIAN_POINT ( 'NONE',  ( -15.00000000000000500, 5.999999999999999100, 500.0000000000000000 ) ) ;
#58 = DIRECTION ( 'NONE',  ( -0.0000000000000000000, -0.0000000000000000000, -1.000000000000000000 ) ) ;
#59 = LINE ( 'NONE', #60, #147 ) ;
#60 = CARTESIAN_POINT ( 'NONE',  ( 14.99999999999999500, 5.999999999999999100, 500.0000000000000000 ) ) ;
#61 = DIRECTION ( 'NONE',  ( -4.336808689942017700E-016, 1.000000000000000000, -0.0000000000000000000 ) ) ;
#62 = CARTESIAN_POINT ( 'NONE',  ( -15.00000000000000500, 5.999999999999999100, 500.0000000000000000 ) ) ;
#63 = DIRECTION ( 'NONE',  ( 0.0000000000000000000, -1.000000000000000000, 0.0000000000000000000 ) ) ;
#64 = DIRECTION ( 'NONE',  ( 0.0000000000000000000, -0.0000000000000000000, -1.000000000000000000 ) ) ;
#65 = LINE ( 'NONE', #66, #153 ) ;
#66 = CARTESIAN_POINT ( 'NONE',  ( -15.00000000000000500, -6.000000000000000900, 500.0000000000000000 ) ) ;
#67 = DIRECTION ( 'NONE',  ( 1.000000000000000000, 0.0000000000000000000, 0.0000000000000000000 ) ) ;
#68 = PLANE ( 'NONE',  #121 ) ;
#69 = LINE ( 'NONE', #70, #131 ) ;
#70 = CARTESIAN_POINT ( 'NONE',  ( 15.00000000000000000, -6.000000000000000900, 500.0000000000000000 ) ) ;
#71 = DIRECTION ( 'NONE',  ( -0.0000000000000000000, 0.0000000000000000000, -1.000000000000000000 ) ) ;
#72 = DIRECTION ( 'NONE',  ( 0.0000000000000000000, -1.000000000000000000, 0.0000000000000000000 ) ) ;
#73 = PLANE ( 'NONE',  #134 ) ;
#74 = LINE ( 'NONE', #75, #117 ) ;
#75 = CARTESIAN_POINT ( 'NONE',  ( -15.00000000000000500, 5.999999999999999100, -500.0000000000000000 ) ) ;
#76 = CARTESIAN_POINT ( 'NONE',  ( -15.00000000000000500, -6.000000000000000900, -500.0000000000000000 ) ) ;
#77 = CARTESIAN_POINT ( 'NONE',  ( -15.00000000000000500, 5.999999999999999100, 500.0000000000000000 ) ) ;
#78 = DIRECTION ( 'NONE',  ( 1.000000000000000000, 0.0000000000000000000, -0.0000000000000000000 ) ) ;
#79 = DIRECTION ( 'NONE',  ( -0.0000000000000000000, -0.0000000000000000000, -1.000000000000000000 ) ) ;
#80 = CARTESIAN_POINT ( 'NONE',  ( -15.00000000000000500, -6.000000000000000900, 500.0000000000000000 ) ) ;
#81 = CARTESIAN_POINT ( 'NONE',  ( -15.00000000000000500, 5.999999999999999100, -500.0000000000000000 ) ) ;
#82 = DIRECTION ( 'NONE',  ( 4.336808689942017700E-016, -1.000000000000000000, 0.0000000000000000000 ) ) ;
#83 =( LENGTH_UNIT ( ) NAMED_UNIT ( * ) SI_UNIT ( .MILLI., .METRE. ) );
#84 = DIRECTION ( 'NONE',  ( 1.000000000000000000, 0.0000000000000000000, 0.0000000000000000000 ) ) ;
#85 = PLANE ( 'NONE',  #126 ) ;
#86 = CARTESIAN_POINT ( 'NONE',  ( 14.99999999999999500, 5.999999999999999100, 500.0000000000000000 ) ) ;
#87 = DIRECTION ( 'NONE',  ( -1.000000000000000000, -4.336808689942017700E-016, 0.0000000000000000000 ) ) ;
#88 = DIRECTION ( 'NONE',  ( 1.000000000000000000, 0.0000000000000000000, 0.0000000000000000000 ) ) ;
#89 = PLANE ( 'NONE',  #119 ) ;
#90 = CARTESIAN_POINT ( 'NONE',  ( 0.0000000000000000000, 0.0000000000000000000, 500.0000000000000000 ) ) ;
#91 = DIRECTION ( 'NONE',  ( -0.0000000000000000000, 0.0000000000000000000, 1.000000000000000000 ) ) ;
#92 = CARTESIAN_POINT ( 'NONE',  ( -15.00000000000000500, 5.999999999999999100, 500.0000000000000000 ) ) ;
#93 = DIRECTION ( 'NONE',  ( -1.000000000000000000, -0.0000000000000000000, -0.0000000000000000000 ) ) ;
#94 = CARTESIAN_POINT ( 'NONE',  ( 0.0000000000000000000, 0.0000000000000000000, -500.0000000000000000 ) ) ;
#95 = DIRECTION ( 'NONE',  ( -0.0000000000000000000, 0.0000000000000000000, 1.000000000000000000 ) ) ;
#96 = CARTESIAN_POINT ( 'NONE',  ( 14.99999999999999500, 5.999999999999999100, 500.0000000000000000 ) ) ;
#97 = DIRECTION ( 'NONE',  ( -0.0000000000000000000, -0.0000000000000000000, -1.000000000000000000 ) ) ;
#98 = PLANE ( 'NONE',  #132 ) ;
#99 = LINE ( 'NONE', #92, #125 ) ;
#100 = DIRECTION ( 'NONE',  ( 0.0000000000000000000, 1.000000000000000000, 0.0000000000000000000 ) ) ;
#101 = CARTESIAN_POINT ( 'NONE',  ( -15.00000000000000500, -6.000000000000000900, 500.0000000000000000 ) ) ;
#102 = DIRECTION ( 'NONE',  ( 0.0000000000000000000, -0.0000000000000000000, 1.000000000000000000 ) ) ;
#103 = LINE ( 'NONE', #96, #129 ) ;
#104 = LINE ( 'NONE', #80, #139 ) ;
#105 = DIRECTION ( 'NONE',  ( -0.0000000000000000000, -0.0000000000000000000, -1.000000000000000000 ) ) ;
#106 = LINE ( 'NONE', #76, #144 ) ;
#107 = DIRECTION ( 'NONE',  ( -1.000000000000000000, -0.0000000000000000000, -0.0000000000000000000 ) ) ;
#108 = DIRECTION ( 'NONE',  ( 1.000000000000000000, 0.0000000000000000000, 0.0000000000000000000 ) ) ;
#109 = LINE ( 'NONE', #81, #118 ) ;
#110 = CC_DESIGN_APPROVAL ( #156, ( #130 ) ) ;
#111 = VECTOR ( 'NONE', #51, 1000.000000000000000 ) ;
#112 = ORGANIZATION ( 'UNSPECIFIED', 'UNSPECIFIED', '' ) ;
#113 = COORDINATED_UNIVERSAL_TIME_OFFSET ( 9, 0, .AHEAD. ) ;
#114 = CALENDAR_DATE ( 2015, 11, 8 ) ;
#115 = COORDINATED_UNIVERSAL_TIME_OFFSET ( 9, 0, .AHEAD. ) ;
#116 = FACE_OUTER_BOUND ( 'NONE', #15, .T. ) ;
#117 = VECTOR ( 'NONE', #72, 1000.000000000000000 ) ;
#118 = VECTOR ( 'NONE', #107, 1000.000000000000000 ) ;
#119 = AXIS2_PLACEMENT_3D ( 'NONE', #90, #91, #84 ) ;
#120 = VECTOR ( 'NONE', #58, 1000.000000000000000 ) ;
#121 = AXIS2_PLACEMENT_3D ( 'NONE', #77, #78, #71 ) ;
#122 = FACE_OUTER_BOUND ( 'NONE', #13, .T. ) ;
#123 = SECURITY_CLASSIFICATION ( '', '', #231 ) ;
#124 = FACE_OUTER_BOUND ( 'NONE', #14, .T. ) ;
#125 = VECTOR ( 'NONE', #93, 1000.000000000000000 ) ;
#126 = AXIS2_PLACEMENT_3D ( 'NONE', #86, #87, #82 ) ;
#127 = CALENDAR_DATE ( 2015, 11, 8 ) ;
#128 = CALENDAR_DATE ( 2015, 11, 8 ) ;
#129 = VECTOR ( 'NONE', #97, 1000.000000000000000 ) ;
#130 = PRODUCT_DEFINITION_FORMATION_WITH_SPECIFIED_SOURCE ( 'ANY', '', #198, .NOT_KNOWN. ) ;
#131 = VECTOR ( 'NONE', #79, 1000.000000000000000 ) ;
#132 = AXIS2_PLACEMENT_3D ( 'NONE', #94, #95, #88 ) ;
#133 = CALENDAR_DATE ( 2015, 11, 8 ) ;
#134 = AXIS2_PLACEMENT_3D ( 'NONE', #101, #100, #102 ) ;
#135 = COORDINATED_UNIVERSAL_TIME_OFFSET ( 9, 0, .AHEAD. ) ;
#136 = AXIS2_PLACEMENT_3D ( 'NONE', #206, #225, #237 ) ;
#137 = COORDINATED_UNIVERSAL_TIME_OFFSET ( 9, 0, .AHEAD. ) ;
#138 = CC_DESIGN_APPROVAL ( #183, ( #171 ) ) ;
#139 = VECTOR ( 'NONE', #105, 1000.000000000000000 ) ;
#140 = FACE_OUTER_BOUND ( 'NONE', #11, .T. ) ;
#141 = APPROVAL_PERSON_ORGANIZATION ( #214, #156, #219 ) ;
#142 = VECTOR ( 'NONE', #55, 1000.000000000000000 ) ;
#143 = APPROVAL_PERSON_ORGANIZATION ( #235, #183, #209 ) ;
#144 = VECTOR ( 'NONE', #108, 1000.000000000000000 ) ;
#145 = CALENDAR_DATE ( 2015, 11, 8 ) ;
#146 = CC_DESIGN_SECURITY_CLASSIFICATION ( #123, ( #130 ) ) ;
#147 = VECTOR ( 'NONE', #61, 1000.000000000000000 ) ;
#148 = FACE_OUTER_BOUND ( 'NONE', #12, .T. ) ;
#149 = AXIS2_PLACEMENT_3D ( 'NONE', #62, #63, #64 ) ;
#150 = COORDINATED_UNIVERSAL_TIME_OFFSET ( 9, 0, .AHEAD. ) ;
#151 = APPROVAL_PERSON_ORGANIZATION ( #236, #161, #230 ) ;
#152 = FACE_OUTER_BOUND ( 'NONE', #16, .T. ) ;
#153 = VECTOR ( 'NONE', #67, 1000.000000000000000 ) ;
#154 = CLOSED_SHELL ( 'NONE', ( #172, #178, #190, #168, #189, #185 ) ) ;
#155 = CC_DESIGN_APPROVAL ( #161, ( #123 ) ) ;
#156 = APPROVAL ( #201, 'UNSPECIFIED' ) ;
#157 = EDGE_CURVE ( 'NONE', #8, #7, #49, .T. ) ;
#158 = EDGE_CURVE ( 'NONE', #4, #5, #53, .T. ) ;
#159 = PRODUCT_RELATED_PRODUCT_CATEGORY ( 'detail', '', ( #198 ) ) ;
#160 = EDGE_CURVE ( 'NONE', #8, #10, #56, .T. ) ;
#161 = APPROVAL ( #228, 'UNSPECIFIED' ) ;
#162 = CC_DESIGN_PERSON_AND_ORGANIZATION_ASSIGNMENT ( #203, #202, ( #130 ) ) ;
#163 = EDGE_CURVE ( 'NONE', #3, #9, #59, .T. ) ;
#164 = LOCAL_TIME ( 19, 24, 49.00000000000000000, #150 ) ;
#165 = CC_DESIGN_PERSON_AND_ORGANIZATION_ASSIGNMENT ( #221, #218, ( #171 ) ) ;
#166 = CC_DESIGN_DATE_AND_TIME_ASSIGNMENT ( #210, #232, ( #123 ) ) ;
#167 = CC_DESIGN_DATE_AND_TIME_ASSIGNMENT ( #208, #200, ( #171 ) ) ;
#168 = ADVANCED_FACE ( 'NONE', ( #140 ), #52, .F. ) ;
#169 = EDGE_CURVE ( 'NONE', #7, #3, #65, .T. ) ;
#170 = EDGE_CURVE ( 'NONE', #3, #4, #69, .T. ) ;
#171 = PRODUCT_DEFINITION ( 'UNKNOWN', '', #130, #196 ) ;
#172 = ADVANCED_FACE ( 'NONE', ( #152 ), #68, .F. ) ;
#173 = EDGE_CURVE ( 'NONE', #10, #6, #74, .T. ) ;
#174 = EDGE_CURVE ( 'NONE', #7, #6, #104, .T. ) ;
#175 = EDGE_CURVE ( 'NONE', #6, #4, #106, .T. ) ;
#176 = CC_DESIGN_PERSON_AND_ORGANIZATION_ASSIGNMENT ( #216, #215, ( #130 ) ) ;
#177 = EDGE_CURVE ( 'NONE', #5, #10, #109, .T. ) ;
#178 = ADVANCED_FACE ( 'NONE', ( #124 ), #73, .F. ) ;
#179 = LOCAL_TIME ( 19, 24, 49.00000000000000000, #135 ) ;
#180 = CC_DESIGN_PERSON_AND_ORGANIZATION_ASSIGNMENT ( #224, #220, ( #198 ) ) ;
#181 = EDGE_CURVE ( 'NONE', #9, #5, #103, .T. ) ;
#182 = LOCAL_TIME ( 19, 24, 49.00000000000000000, #115 ) ;
#183 = APPROVAL ( #234, 'UNSPECIFIED' ) ;
#184 = EDGE_CURVE ( 'NONE', #9, #8, #99, .T. ) ;
#185 = ADVANCED_FACE ( 'NONE', ( #122 ), #98, .F. ) ;
#186 = LOCAL_TIME ( 19, 24, 49.00000000000000000, #113 ) ;
#187 = LOCAL_TIME ( 19, 24, 49.00000000000000000, #137 ) ;
#188 = CC_DESIGN_PERSON_AND_ORGANIZATION_ASSIGNMENT ( #229, #205, ( #123 ) ) ;
#189 = ADVANCED_FACE ( 'NONE', ( #148 ), #89, .T. ) ;
#190 = ADVANCED_FACE ( 'NONE', ( #116 ), #85, .F. ) ;
#191 = PERSON ( 'UNSPECIFIED', 'UNSPECIFIED', 'UNSPECIFIED', ('UNSPECIFIED'), ('UNSPECIFIED'), ('UNSPECIFIED') ) ;
#192 = ADVANCED_BREP_SHAPE_REPRESENTATION ( 'sone3D', ( #197, #136 ), #194 ) ;
#193 = UNCERTAINTY_MEASURE_WITH_UNIT (LENGTH_MEASURE( 1.000000000000000100E-005 ), #83, 'distance_accuracy_value', 'NONE');
#194 =( GEOMETRIC_REPRESENTATION_CONTEXT ( 3 ) GLOBAL_UNCERTAINTY_ASSIGNED_CONTEXT ( ( #193 ) ) GLOBAL_UNIT_ASSIGNED_CONTEXT ( ( #83, #227, #233 ) ) REPRESENTATION_CONTEXT ( 'NONE', 'WORKASPACE' ) );
#195 = PRODUCT_DEFINITION_SHAPE ( 'NONE', 'NONE',  #171 ) ;
#196 = DESIGN_CONTEXT ( 'detailed design', #1, 'design' ) ;
#197 = MANIFOLD_SOLID_BREP ( 'ÎÞ½ - µoµ1', #154 ) ;
#198 = PRODUCT ( 'sone3D', 'sone3D', '', ( #217 ) ) ;
#199 = APPROVAL_DATE_TIME ( #213, #156 ) ;
#200 = DATE_TIME_ROLE ( 'creation_date' ) ;
#201 = APPROVAL_STATUS ( 'not_yet_approved' ) ;
#202 = PERSON_AND_ORGANIZATION_ROLE ( 'creator' ) ;
#203 = PERSON_AND_ORGANIZATION ( #191, #112 ) ;
#204 = APPLICATION_PROTOCOL_DEFINITION ( 'international standard', 'config_control_design', 1994, #2 ) ;
#205 = PERSON_AND_ORGANIZATION_ROLE ( 'classification_officer' ) ;
#206 = CARTESIAN_POINT ( 'NONE',  ( 0.0000000000000000000, 0.0000000000000000000, 0.0000000000000000000 ) ) ;
#207 = APPROVAL_DATE_TIME ( #212, #183 ) ;
#208 = DATE_AND_TIME ( #128, #187 ) ;
#209 = APPROVAL_ROLE ( '' ) ;
#210 = DATE_AND_TIME ( #127, #179 ) ;
#211 = APPLICATION_PROTOCOL_DEFINITION ( 'international standard', 'config_control_design', 1994, #1 ) ;
#212 = DATE_AND_TIME ( #145, #186 ) ;
#213 = DATE_AND_TIME ( #114, #182 ) ;
#214 = PERSON_AND_ORGANIZATION ( #191, #112 ) ;
#215 = PERSON_AND_ORGANIZATION_ROLE ( 'design_supplier' ) ;
#216 = PERSON_AND_ORGANIZATION ( #191, #112 ) ;
#217 = MECHANICAL_CONTEXT ( 'NONE', #2, 'mechanical' ) ;
#218 = PERSON_AND_ORGANIZATION_ROLE ( 'creator' ) ;
#219 = APPROVAL_ROLE ( '' ) ;
#220 = PERSON_AND_ORGANIZATION_ROLE ( 'design_owner' ) ;
#221 = PERSON_AND_ORGANIZATION ( #191, #112 ) ;
#222 = SHAPE_DEFINITION_REPRESENTATION ( #195, #192 ) ;
#223 = DATE_AND_TIME ( #133, #164 ) ;
#224 = PERSON_AND_ORGANIZATION ( #191, #112 ) ;
#225 = DIRECTION ( 'NONE',  ( 0.0000000000000000000, 0.0000000000000000000, 1.000000000000000000 ) ) ;
#226 = APPROVAL_DATE_TIME ( #223, #161 ) ;
#227 =( NAMED_UNIT ( * ) PLANE_ANGLE_UNIT ( ) SI_UNIT ( $, .RADIAN. ) );
#228 = APPROVAL_STATUS ( 'not_yet_approved' ) ;
#229 = PERSON_AND_ORGANIZATION ( #191, #112 ) ;
#230 = APPROVAL_ROLE ( '' ) ;
#231 = SECURITY_CLASSIFICATION_LEVEL ( 'unclassified' ) ;
#232 = DATE_TIME_ROLE ( 'classification_date' ) ;
#233 =( NAMED_UNIT ( * ) SI_UNIT ( $, .STERADIAN. ) SOLID_ANGLE_UNIT ( ) );
#234 = APPROVAL_STATUS ( 'not_yet_approved' ) ;
#235 = PERSON_AND_ORGANIZATION ( #191, #112 ) ;
#236 = PERSON_AND_ORGANIZATION ( #191, #112 ) ;
#237 = DIRECTION ( 'NONE',  ( 1.000000000000000000, 0.0000000000000000000, 0.0000000000000000000 ) ) ;
ENDSEC;
END-ISO-10303-21;
