ISO-10303-21;
HEADER;
FILE_DESCRIPTION (( 'STEP AP203' ),
    '1' );
FILE_NAME ('sone3D.STEP',
    '2015-08-11T10:24:32',
    ( '' ),
    ( '' ),
    'SwSTEP 2.0',
    'SolidWorks 2012',
    '' );
FILE_SCHEMA (( 'CONFIG_CONTROL_DESIGN' ));
ENDSEC;

DATA;
#1 = APPLICATION_CONTEXT ( 'configuration controlled 3d designs of mechanical parts and assemblies' ) ;
#2 = APPLICATION_CONTEXT ( 'configuration controlled 3d designs of mechanical parts and assemblies' ) ;
#3 = VERTEX_POINT ( 'NONE', #39 ) ;
#4 = VERTEX_POINT ( 'NONE', #40 ) ;
#5 = VERTEX_POINT ( 'NONE', #41 ) ;
#6 = VERTEX_POINT ( 'NONE', #42 ) ;
#7 = VERTEX_POINT ( 'NONE', #43 ) ;
#8 = VERTEX_POINT ( 'NONE', #44 ) ;
#9 = EDGE_LOOP ( 'NONE', ( #17, #35, #86, #18 ) ) ;
#10 = EDGE_LOOP ( 'NONE', ( #24, #27, #33, #30 ) ) ;
#11 = PLANE ( 'NONE',  #150 ) ;
#12 = EDGE_LOOP ( 'NONE', ( #38, #31, #25, #16 ) ) ;
#13 = EDGE_LOOP ( 'NONE', ( #32, #37, #34, #36 ) ) ;
#14 = EDGE_LOOP ( 'NONE', ( #22, #28, #29, #26 ) ) ;
#15 = EDGE_LOOP ( 'NONE', ( #23, #21, #20, #19 ) ) ;
#16 = ORIENTED_EDGE ( 'NONE', *, *, #206, .T. ) ;
#17 = ORIENTED_EDGE ( 'NONE', *, *, #198, .T. ) ;
#18 = ORIENTED_EDGE ( 'NONE', *, *, #208, .T. ) ;
#19 = ORIENTED_EDGE ( 'NONE', *, *, #204, .T. ) ;
#20 = ORIENTED_EDGE ( 'NONE', *, *, #196, .F. ) ;
#21 = ORIENTED_EDGE ( 'NONE', *, *, #208, .F. ) ;
#22 = ORIENTED_EDGE ( 'NONE', *, *, #207, .T. ) ;
#23 = ORIENTED_EDGE ( 'NONE', *, *, #212, .T. ) ;
#24 = ORIENTED_EDGE ( 'NONE', *, *, #210, .F. ) ;
#25 = ORIENTED_EDGE ( 'NONE', *, *, #196, .T. ) ;
#26 = ORIENTED_EDGE ( 'NONE', *, *, #220, .T. ) ;
#27 = ORIENTED_EDGE ( 'NONE', *, *, #198, .F. ) ;
#28 = ORIENTED_EDGE ( 'NONE', *, *, #204, .F. ) ;
#29 = ORIENTED_EDGE ( 'NONE', *, *, #209, .F. ) ;
#30 = ORIENTED_EDGE ( 'NONE', *, *, #207, .F. ) ;
#31 = ORIENTED_EDGE ( 'NONE', *, *, #209, .T. ) ;
#32 = ORIENTED_EDGE ( 'NONE', *, *, #210, .T. ) ;
#33 = ORIENTED_EDGE ( 'NONE', *, *, #212, .F. ) ;
#34 = ORIENTED_EDGE ( 'NONE', *, *, #216, .F. ) ;
#35 = ORIENTED_EDGE ( 'NONE', *, *, #195, .F. ) ;
#36 = ORIENTED_EDGE ( 'NONE', *, *, #195, .T. ) ;
#37 = ORIENTED_EDGE ( 'NONE', *, *, #220, .F. ) ;
#38 = ORIENTED_EDGE ( 'NONE', *, *, #216, .T. ) ;
#39 = CARTESIAN_POINT ( 'NONE',  ( -12.49999999999999800, -5.999999999999999100, -500.0000000000000000 ) ) ;
#40 = CARTESIAN_POINT ( 'NONE',  ( -12.49999999999999800, -5.999999999999999100, 500.0000000000000000 ) ) ;
#41 = CARTESIAN_POINT ( 'NONE',  ( 12.50000000000000000, -5.999999999999999100, -500.0000000000000000 ) ) ;
#42 = CARTESIAN_POINT ( 'NONE',  ( -12.50000000000000000, 6.000000000000000900, 500.0000000000000000 ) ) ;
#43 = CARTESIAN_POINT ( 'NONE',  ( 12.50000000000000000, 6.000000000000000900, -500.0000000000000000 ) ) ;
#44 = CARTESIAN_POINT ( 'NONE',  ( 12.50000000000000000, 6.000000000000000900, 500.0000000000000000 ) ) ;
#45 = CARTESIAN_POINT ( 'NONE',  ( 12.50000000000000000, -5.999999999999999100, 500.0000000000000000 ) ) ;
#46 = CARTESIAN_POINT ( 'NONE',  ( -12.50000000000000000, 6.000000000000000900, -500.0000000000000000 ) ) ;
#47 = LINE ( 'NONE', #48, #149 ) ;
#48 = CARTESIAN_POINT ( 'NONE',  ( -12.50000000000000000, 6.000000000000000900, 500.0000000000000000 ) ) ;
#49 = DIRECTION ( 'NONE',  ( -0.0000000000000000000, -0.0000000000000000000, -1.000000000000000000 ) ) ;
#50 = PLANE ( 'NONE',  #175 ) ;
#51 = LINE ( 'NONE', #52, #173 ) ;
#52 = CARTESIAN_POINT ( 'NONE',  ( 12.50000000000000000, 6.000000000000000900, 500.0000000000000000 ) ) ;
#53 = DIRECTION ( 'NONE',  ( -0.0000000000000000000, 1.000000000000000000, -0.0000000000000000000 ) ) ;
#54 = CARTESIAN_POINT ( 'NONE',  ( 0.0000000000000000000, 0.0000000000000000000, -500.0000000000000000 ) ) ;
#55 = DIRECTION ( 'NONE',  ( -0.0000000000000000000, 0.0000000000000000000, 1.000000000000000000 ) ) ;
#56 = DIRECTION ( 'NONE',  ( 1.000000000000000000, 0.0000000000000000000, 0.0000000000000000000 ) ) ;
#57 = VERTEX_POINT ( 'NONE', #45 ) ;
#58 = LINE ( 'NONE', #59, #194 ) ;
#59 = CARTESIAN_POINT ( 'NONE',  ( -12.50000000000000000, 6.000000000000000900, -500.0000000000000000 ) ) ;
#60 = DIRECTION ( 'NONE',  ( -1.000000000000000000, -0.0000000000000000000, -0.0000000000000000000 ) ) ;
#61 = PLANE ( 'NONE',  #161 ) ;
#62 = LINE ( 'NONE', #79, #165 ) ;
#63 = CARTESIAN_POINT ( 'NONE',  ( 12.50000000000000000, 6.000000000000000900, 500.0000000000000000 ) ) ;
#64 = DIRECTION ( 'NONE',  ( -1.000000000000000000, 0.0000000000000000000, 0.0000000000000000000 ) ) ;
#65 = DIRECTION ( 'NONE',  ( 0.0000000000000000000, 0.0000000000000000000, 1.000000000000000000 ) ) ;
#66 = VERTEX_POINT ( 'NONE', #46 ) ;
#67 = LINE ( 'NONE', #68, #191 ) ;
#68 = CARTESIAN_POINT ( 'NONE',  ( 12.50000000000000000, -5.999999999999999100, 500.0000000000000000 ) ) ;
#69 = LINE ( 'NONE', #77, #174 ) ;
#70 = CARTESIAN_POINT ( 'NONE',  ( -12.49999999999999800, -5.999999999999999100, -500.0000000000000000 ) ) ;
#71 = CARTESIAN_POINT ( 'NONE',  ( 12.50000000000000000, 6.000000000000000900, 500.0000000000000000 ) ) ;
#72 = DIRECTION ( 'NONE',  ( -0.0000000000000000000, -0.0000000000000000000, -1.000000000000000000 ) ) ;
#73 = DIRECTION ( 'NONE',  ( 1.000000000000000000, 0.0000000000000000000, 0.0000000000000000000 ) ) ;
#74 = LINE ( 'NONE', #71, #162 ) ;
#75 = DIRECTION ( 'NONE',  ( -1.000000000000000000, -0.0000000000000000000, -0.0000000000000000000 ) ) ;
#76 = LINE ( 'NONE', #70, #179 ) ;
#77 = CARTESIAN_POINT ( 'NONE',  ( -12.50000000000000000, 6.000000000000000900, 500.0000000000000000 ) ) ;
#78 = CARTESIAN_POINT ( 'NONE',  ( -12.49999999999999800, -5.999999999999999100, 500.0000000000000000 ) ) ;
#79 = CARTESIAN_POINT ( 'NONE',  ( 12.50000000000000000, 6.000000000000000900, -500.0000000000000000 ) ) ;
#80 = LINE ( 'NONE', #78, #186 ) ;
#81 = DIRECTION ( 'NONE',  ( 1.000000000000000000, 0.0000000000000000000, 0.0000000000000000000 ) ) ;
#82 = LINE ( 'NONE', #84, #154 ) ;
#83 = DIRECTION ( 'NONE',  ( -0.0000000000000000000, 1.000000000000000000, -0.0000000000000000000 ) ) ;
#84 = CARTESIAN_POINT ( 'NONE',  ( -12.50000000000000000, 6.000000000000000900, -500.0000000000000000 ) ) ;
#85 = DIRECTION ( 'NONE',  ( -0.0000000000000000000, -0.0000000000000000000, -1.000000000000000000 ) ) ;
#86 = ORIENTED_EDGE ( 'NONE', *, *, #206, .F. ) ;
#87 = DIRECTION ( 'NONE',  ( 1.445602896647339200E-016, -1.000000000000000000, 0.0000000000000000000 ) ) ;
#88 = APPROVAL_ROLE ( '' ) ;
#89 = DATE_AND_TIME ( #183, #227 ) ;
#90 = APPROVAL_DATE_TIME ( #89, #224 ) ;
#91 = DATE_AND_TIME ( #178, #199 ) ;
#92 = DATE_TIME_ROLE ( 'classification_date' ) ;
#93 = PERSON_AND_ORGANIZATION ( #230, #153 ) ;
#94 = APPROVAL_STATUS ( 'not_yet_approved' ) ;
#95 = PERSON_AND_ORGANIZATION_ROLE ( 'design_supplier' ) ;
#96 = SECURITY_CLASSIFICATION_LEVEL ( 'unclassified' ) ;
#97 = PERSON_AND_ORGANIZATION ( #230, #153 ) ;
#98 = PERSON_AND_ORGANIZATION_ROLE ( 'classification_officer' ) ;
#99 = APPROVAL_DATE_TIME ( #106, #213 ) ;
#100 = PERSON_AND_ORGANIZATION ( #230, #153 ) ;
#101 = PERSON_AND_ORGANIZATION_ROLE ( 'creator' ) ;
#102 = PERSON_AND_ORGANIZATION ( #230, #153 ) ;
#103 = PERSON_AND_ORGANIZATION ( #230, #153 ) ;
#104 = APPROVAL_STATUS ( 'not_yet_approved' ) ;
#105 = APPROVAL_ROLE ( '' ) ;
#106 = DATE_AND_TIME ( #164, #202 ) ;
#107 = PERSON_AND_ORGANIZATION ( #230, #153 ) ;
#108 = PERSON_AND_ORGANIZATION_ROLE ( 'creator' ) ;
#109 = DATE_AND_TIME ( #190, #222 ) ;
#110 = DATE_TIME_ROLE ( 'creation_date' ) ;
#111 = APPROVAL_STATUS ( 'not_yet_approved' ) ;
#112 = APPROVAL_ROLE ( '' ) ;
#113 = DATE_AND_TIME ( #167, #215 ) ;
#114 = APPROVAL_DATE_TIME ( #113, #217 ) ;
#115 = PERSON_AND_ORGANIZATION ( #230, #153 ) ;
#116 = PERSON_AND_ORGANIZATION_ROLE ( 'design_owner' ) ;
#117 = APPLICATION_PROTOCOL_DEFINITION ( 'international standard', 'config_control_design', 1994, #2 ) ;
#118 = PERSON_AND_ORGANIZATION ( #230, #153 ) ;
#119 = MECHANICAL_CONTEXT ( 'NONE', #1, 'mechanical' ) ;
#120 = CARTESIAN_POINT ( 'NONE',  ( 0.0000000000000000000, 0.0000000000000000000, 0.0000000000000000000 ) ) ;
#121 = DIRECTION ( 'NONE',  ( 0.0000000000000000000, 0.0000000000000000000, 1.000000000000000000 ) ) ;
#122 = DIRECTION ( 'NONE',  ( 1.000000000000000000, 0.0000000000000000000, 0.0000000000000000000 ) ) ;
#123 = SHAPE_DEFINITION_REPRESENTATION ( #236, #231 ) ;
#124 = APPLICATION_PROTOCOL_DEFINITION ( 'international standard', 'config_control_design', 1994, #1 ) ;
#125 = LINE ( 'NONE', #126, #184 ) ;
#126 = CARTESIAN_POINT ( 'NONE',  ( -12.49999999999999800, -5.999999999999999100, 500.0000000000000000 ) ) ;
#127 = DIRECTION ( 'NONE',  ( -0.0000000000000000000, -0.0000000000000000000, -1.000000000000000000 ) ) ;
#128 = PLANE ( 'NONE',  #160 ) ;
#129 = CARTESIAN_POINT ( 'NONE',  ( -12.50000000000000000, 6.000000000000000900, 500.0000000000000000 ) ) ;
#130 = DIRECTION ( 'NONE',  ( 0.0000000000000000000, -1.000000000000000000, 0.0000000000000000000 ) ) ;
#131 = DIRECTION ( 'NONE',  ( 0.0000000000000000000, -0.0000000000000000000, -1.000000000000000000 ) ) ;
#132 = PLANE ( 'NONE',  #189 ) ;
#133 = CARTESIAN_POINT ( 'NONE',  ( 0.0000000000000000000, 0.0000000000000000000, 500.0000000000000000 ) ) ;
#134 = DIRECTION ( 'NONE',  ( -0.0000000000000000000, 0.0000000000000000000, 1.000000000000000000 ) ) ;
#135 = DIRECTION ( 'NONE',  ( 1.000000000000000000, 0.0000000000000000000, 0.0000000000000000000 ) ) ;
#136 =( LENGTH_UNIT ( ) NAMED_UNIT ( * ) SI_UNIT ( .MILLI., .METRE. ) );
#137 =( NAMED_UNIT ( * ) PLANE_ANGLE_UNIT ( ) SI_UNIT ( $, .RADIAN. ) );
#138 =( NAMED_UNIT ( * ) SI_UNIT ( $, .STERADIAN. ) SOLID_ANGLE_UNIT ( ) );
#139 = PLANE ( 'NONE',  #159 ) ;
#140 = CARTESIAN_POINT ( 'NONE',  ( -12.50000000000000000, 6.000000000000000900, 500.0000000000000000 ) ) ;
#141 = DIRECTION ( 'NONE',  ( 1.000000000000000000, 1.445602896647339200E-016, -0.0000000000000000000 ) ) ;
#142 = DIRECTION ( 'NONE',  ( -1.445602896647339200E-016, 1.000000000000000000, 0.0000000000000000000 ) ) ;
#143 = DIRECTION ( 'NONE',  ( 1.445602896647339200E-016, -1.000000000000000000, 0.0000000000000000000 ) ) ;
#144 = CARTESIAN_POINT ( 'NONE',  ( -12.49999999999999800, -5.999999999999999100, 500.0000000000000000 ) ) ;
#145 = DIRECTION ( 'NONE',  ( 0.0000000000000000000, 1.000000000000000000, 0.0000000000000000000 ) ) ;
#146 = DIRECTION ( 'NONE',  ( 0.0000000000000000000, -0.0000000000000000000, 1.000000000000000000 ) ) ;
#147 = LINE ( 'NONE', #148, #192 ) ;
#148 = CARTESIAN_POINT ( 'NONE',  ( -12.50000000000000000, 6.000000000000000900, 500.0000000000000000 ) ) ;
#149 = VECTOR ( 'NONE', #49, 1000.000000000000000 ) ;
#150 = AXIS2_PLACEMENT_3D ( 'NONE', #144, #145, #146 ) ;
#151 = CC_DESIGN_APPROVAL ( #217, ( #205 ) ) ;
#152 = CC_DESIGN_APPROVAL ( #213, ( #169 ) ) ;
#153 = ORGANIZATION ( 'UNSPECIFIED', 'UNSPECIFIED', '' ) ;
#154 = VECTOR ( 'NONE', #87, 1000.000000000000000 ) ;
#155 = FACE_OUTER_BOUND ( 'NONE', #15, .T. ) ;
#156 = COORDINATED_UNIVERSAL_TIME_OFFSET ( 9, 0, .AHEAD. ) ;
#157 = COORDINATED_UNIVERSAL_TIME_OFFSET ( 9, 0, .AHEAD. ) ;
#158 = AXIS2_PLACEMENT_3D ( 'NONE', #120, #121, #122 ) ;
#159 = AXIS2_PLACEMENT_3D ( 'NONE', #140, #141, #142 ) ;
#160 = AXIS2_PLACEMENT_3D ( 'NONE', #129, #130, #131 ) ;
#161 = AXIS2_PLACEMENT_3D ( 'NONE', #63, #64, #65 ) ;
#162 = VECTOR ( 'NONE', #72, 1000.000000000000000 ) ;
#163 = FACE_OUTER_BOUND ( 'NONE', #13, .T. ) ;
#164 = CALENDAR_DATE ( 2015, 11, 8 ) ;
#165 = VECTOR ( 'NONE', #83, 1000.000000000000000 ) ;
#166 = FACE_OUTER_BOUND ( 'NONE', #12, .T. ) ;
#167 = CALENDAR_DATE ( 2015, 11, 8 ) ;
#168 = APPROVAL_PERSON_ORGANIZATION ( #103, #213, #105 ) ;
#169 = PRODUCT_DEFINITION_FORMATION_WITH_SPECIFIED_SOURCE ( 'ANY', '', #237, .NOT_KNOWN. ) ;
#170 = APPROVAL_PERSON_ORGANIZATION ( #93, #224, #88 ) ;
#171 = CLOSED_SHELL ( 'NONE', ( #219, #218, #201, #221, #228, #197 ) ) ;
#172 = COORDINATED_UNIVERSAL_TIME_OFFSET ( 9, 0, .AHEAD. ) ;
#173 = VECTOR ( 'NONE', #53, 1000.000000000000000 ) ;
#174 = VECTOR ( 'NONE', #75, 1000.000000000000000 ) ;
#175 = AXIS2_PLACEMENT_3D ( 'NONE', #54, #55, #56 ) ;
#176 = FACE_OUTER_BOUND ( 'NONE', #10, .T. ) ;
#177 = FACE_OUTER_BOUND ( 'NONE', #9, .T. ) ;
#178 = CALENDAR_DATE ( 2015, 11, 8 ) ;
#179 = VECTOR ( 'NONE', #73, 1000.000000000000000 ) ;
#180 = APPROVAL_PERSON_ORGANIZATION ( #118, #217, #112 ) ;
#181 = CC_DESIGN_APPROVAL ( #224, ( #188 ) ) ;
#182 = COORDINATED_UNIVERSAL_TIME_OFFSET ( 9, 0, .AHEAD. ) ;
#183 = CALENDAR_DATE ( 2015, 11, 8 ) ;
#184 = VECTOR ( 'NONE', #127, 1000.000000000000000 ) ;
#185 = CC_DESIGN_SECURITY_CLASSIFICATION ( #188, ( #169 ) ) ;
#186 = VECTOR ( 'NONE', #81, 1000.000000000000000 ) ;
#187 = COORDINATED_UNIVERSAL_TIME_OFFSET ( 9, 0, .AHEAD. ) ;
#188 = SECURITY_CLASSIFICATION ( '', '', #96 ) ;
#189 = AXIS2_PLACEMENT_3D ( 'NONE', #133, #134, #135 ) ;
#190 = CALENDAR_DATE ( 2015, 11, 8 ) ;
#191 = VECTOR ( 'NONE', #85, 1000.000000000000000 ) ;
#192 = VECTOR ( 'NONE', #143, 1000.000000000000000 ) ;
#193 = FACE_OUTER_BOUND ( 'NONE', #14, .T. ) ;
#194 = VECTOR ( 'NONE', #60, 1000.000000000000000 ) ;
#195 = EDGE_CURVE ( 'NONE', #6, #66, #47, .T. ) ;
#196 = EDGE_CURVE ( 'NONE', #57, #8, #51, .T. ) ;
#197 = ADVANCED_FACE ( 'NONE', ( #176 ), #50, .F. ) ;
#198 = EDGE_CURVE ( 'NONE', #7, #66, #58, .T. ) ;
#199 = LOCAL_TIME ( 19, 24, 32.00000000000000000, #172 ) ;
#200 = CC_DESIGN_PERSON_AND_ORGANIZATION_ASSIGNMENT ( #102, #95, ( #169 ) ) ;
#201 = ADVANCED_FACE ( 'NONE', ( #155 ), #61, .F. ) ;
#202 = LOCAL_TIME ( 19, 24, 32.00000000000000000, #156 ) ;
#203 = PRODUCT_RELATED_PRODUCT_CATEGORY ( 'detail', '', ( #237 ) ) ;
#204 = EDGE_CURVE ( 'NONE', #57, #5, #67, .T. ) ;
#205 = PRODUCT_DEFINITION ( 'UNKNOWN', '', #169, #234 ) ;
#206 = EDGE_CURVE ( 'NONE', #8, #6, #69, .T. ) ;
#207 = EDGE_CURVE ( 'NONE', #3, #5, #76, .T. ) ;
#208 = EDGE_CURVE ( 'NONE', #8, #7, #74, .T. ) ;
#209 = EDGE_CURVE ( 'NONE', #4, #57, #80, .T. ) ;
#210 = EDGE_CURVE ( 'NONE', #66, #3, #82, .T. ) ;
#211 = CC_DESIGN_DATE_AND_TIME_ASSIGNMENT ( #109, #110, ( #205 ) ) ;
#212 = EDGE_CURVE ( 'NONE', #5, #7, #62, .T. ) ;
#213 = APPROVAL ( #104, 'UNSPECIFIED' ) ;
#214 = CC_DESIGN_PERSON_AND_ORGANIZATION_ASSIGNMENT ( #115, #116, ( #237 ) ) ;
#215 = LOCAL_TIME ( 19, 24, 32.00000000000000000, #157 ) ;
#216 = EDGE_CURVE ( 'NONE', #6, #4, #147, .T. ) ;
#217 = APPROVAL ( #111, 'UNSPECIFIED' ) ;
#218 = ADVANCED_FACE ( 'NONE', ( #193 ), #11, .F. ) ;
#219 = ADVANCED_FACE ( 'NONE', ( #163 ), #139, .F. ) ;
#220 = EDGE_CURVE ( 'NONE', #4, #3, #125, .T. ) ;
#221 = ADVANCED_FACE ( 'NONE', ( #177 ), #128, .F. ) ;
#222 = LOCAL_TIME ( 19, 24, 32.00000000000000000, #182 ) ;
#223 = CC_DESIGN_PERSON_AND_ORGANIZATION_ASSIGNMENT ( #100, #101, ( #169 ) ) ;
#224 = APPROVAL ( #94, 'UNSPECIFIED' ) ;
#225 = CC_DESIGN_PERSON_AND_ORGANIZATION_ASSIGNMENT ( #107, #108, ( #205 ) ) ;
#226 = CC_DESIGN_PERSON_AND_ORGANIZATION_ASSIGNMENT ( #97, #98, ( #188 ) ) ;
#227 = LOCAL_TIME ( 19, 24, 32.00000000000000000, #187 ) ;
#228 = ADVANCED_FACE ( 'NONE', ( #166 ), #132, .T. ) ;
#229 = CC_DESIGN_DATE_AND_TIME_ASSIGNMENT ( #91, #92, ( #188 ) ) ;
#230 = PERSON ( 'UNSPECIFIED', 'UNSPECIFIED', 'UNSPECIFIED', ('UNSPECIFIED'), ('UNSPECIFIED'), ('UNSPECIFIED') ) ;
#231 = ADVANCED_BREP_SHAPE_REPRESENTATION ( 'sone3D', ( #235, #158 ), #233 ) ;
#232 = UNCERTAINTY_MEASURE_WITH_UNIT (LENGTH_MEASURE( 1.000000000000000100E-005 ), #136, 'distance_accuracy_value', 'NONE');
#233 =( GEOMETRIC_REPRESENTATION_CONTEXT ( 3 ) GLOBAL_UNCERTAINTY_ASSIGNED_CONTEXT ( ( #232 ) ) GLOBAL_UNIT_ASSIGNED_CONTEXT ( ( #136, #137, #138 ) ) REPRESENTATION_CONTEXT ( 'NONE', 'WORKASPACE' ) );
#234 = DESIGN_CONTEXT ( 'detailed design', #2, 'design' ) ;
#235 = MANIFOLD_SOLID_BREP ( 'ÎÞ½ - µoµ1', #171 ) ;
#236 = PRODUCT_DEFINITION_SHAPE ( 'NONE', 'NONE',  #205 ) ;
#237 = PRODUCT ( 'sone3D', 'sone3D', '', ( #119 ) ) ;
ENDSEC;
END-ISO-10303-21;
