ISO-10303-21;
HEADER;
FILE_DESCRIPTION (( 'STEP AP203' ),
    '1' );
FILE_NAME ('sone3D.STEP',
    '2015-08-11T10:24:16',
    ( '' ),
    ( '' ),
    'SwSTEP 2.0',
    'SolidWorks 2012',
    '' );
FILE_SCHEMA (( 'CONFIG_CONTROL_DESIGN' ));
ENDSEC;

DATA;
#1 = APPLICATION_CONTEXT ( 'configuration controlled 3d designs of mechanical parts and assemblies' ) ;
#2 = APPLICATION_CONTEXT ( 'configuration controlled 3d designs of mechanical parts and assemblies' ) ;
#3 = PERSON_AND_ORGANIZATION ( #230, #154 ) ;
#4 =( NAMED_UNIT ( * ) SI_UNIT ( $, .STERADIAN. ) SOLID_ANGLE_UNIT ( ) );
#5 = PERSON_AND_ORGANIZATION_ROLE ( 'design_supplier' ) ;
#6 = DIRECTION ( 'NONE',  ( 1.000000000000000000, 0.0000000000000000000, -0.0000000000000000000 ) ) ;
#7 = APPLICATION_PROTOCOL_DEFINITION ( 'international standard', 'config_control_design', 1994, #2 ) ;
#8 =( NAMED_UNIT ( * ) PLANE_ANGLE_UNIT ( ) SI_UNIT ( $, .RADIAN. ) );
#9 = ORIENTED_EDGE ( 'NONE', *, *, #206, .F. ) ;
#10 = VERTEX_POINT ( 'NONE', #71 ) ;
#11 = APPLICATION_PROTOCOL_DEFINITION ( 'international standard', 'config_control_design', 1994, #1 ) ;
#12 = VERTEX_POINT ( 'NONE', #72 ) ;
#13 = VERTEX_POINT ( 'NONE', #73 ) ;
#14 = DIRECTION ( 'NONE',  ( -0.0000000000000000000, -0.0000000000000000000, -1.000000000000000000 ) ) ;
#15 = VERTEX_POINT ( 'NONE', #74 ) ;
#16 = VERTEX_POINT ( 'NONE', #75 ) ;
#17 = LINE ( 'NONE', #20, #183 ) ;
#18 = VERTEX_POINT ( 'NONE', #76 ) ;
#19 = VERTEX_POINT ( 'NONE', #77 ) ;
#20 = CARTESIAN_POINT ( 'NONE',  ( -10.00000000000000200, -6.000000000000000000, 500.0000000000000000 ) ) ;
#21 = DIRECTION ( 'NONE',  ( -0.0000000000000000000, 0.0000000000000000000, 1.000000000000000000 ) ) ;
#22 = CARTESIAN_POINT ( 'NONE',  ( 0.0000000000000000000, 0.0000000000000000000, 500.0000000000000000 ) ) ;
#23 = VERTEX_POINT ( 'NONE', #78 ) ;
#24 = EDGE_LOOP ( 'NONE', ( #52, #54, #36, #61 ) ) ;
#25 = EDGE_LOOP ( 'NONE', ( #70, #51, #41, #9 ) ) ;
#26 = DIRECTION ( 'NONE',  ( 1.000000000000000000, 0.0000000000000000000, 0.0000000000000000000 ) ) ;
#27 = PERSON_AND_ORGANIZATION_ROLE ( 'design_owner' ) ;
#28 = LINE ( 'NONE', #138, #168 ) ;
#29 = CARTESIAN_POINT ( 'NONE',  ( -10.00000000000000200, 6.000000000000000000, 500.0000000000000000 ) ) ;
#30 = EDGE_LOOP ( 'NONE', ( #34, #69, #68, #93 ) ) ;
#31 = EDGE_LOOP ( 'NONE', ( #44, #48, #50, #64 ) ) ;
#32 = EDGE_LOOP ( 'NONE', ( #63, #67, #60, #66 ) ) ;
#33 = EDGE_LOOP ( 'NONE', ( #47, #43, #40, #39 ) ) ;
#34 = ORIENTED_EDGE ( 'NONE', *, *, #201, .T. ) ;
#35 = CARTESIAN_POINT ( 'NONE',  ( 9.999999999999996400, 6.000000000000000000, 500.0000000000000000 ) ) ;
#36 = ORIENTED_EDGE ( 'NONE', *, *, #200, .T. ) ;
#37 = DIRECTION ( 'NONE',  ( 0.0000000000000000000, 0.0000000000000000000, 1.000000000000000000 ) ) ;
#38 = DIRECTION ( 'NONE',  ( -0.0000000000000000000, 0.0000000000000000000, 1.000000000000000000 ) ) ;
#39 = ORIENTED_EDGE ( 'NONE', *, *, #203, .T. ) ;
#40 = ORIENTED_EDGE ( 'NONE', *, *, #200, .F. ) ;
#41 = ORIENTED_EDGE ( 'NONE', *, *, #199, .F. ) ;
#42 = DIRECTION ( 'NONE',  ( 1.000000000000000000, 0.0000000000000000000, 0.0000000000000000000 ) ) ;
#43 = ORIENTED_EDGE ( 'NONE', *, *, #207, .F. ) ;
#44 = ORIENTED_EDGE ( 'NONE', *, *, #206, .T. ) ;
#45 = PLANE ( 'NONE',  #193 ) ;
#46 = DIRECTION ( 'NONE',  ( -1.000000000000000000, 0.0000000000000000000, 0.0000000000000000000 ) ) ;
#47 = ORIENTED_EDGE ( 'NONE', *, *, #199, .T. ) ;
#48 = ORIENTED_EDGE ( 'NONE', *, *, #203, .F. ) ;
#49 = PLANE ( 'NONE',  #190 ) ;
#50 = ORIENTED_EDGE ( 'NONE', *, *, #213, .F. ) ;
#51 = ORIENTED_EDGE ( 'NONE', *, *, #201, .F. ) ;
#52 = ORIENTED_EDGE ( 'NONE', *, *, #212, .T. ) ;
#53 = DIRECTION ( 'NONE',  ( 1.000000000000000000, 0.0000000000000000000, 0.0000000000000000000 ) ) ;
#54 = ORIENTED_EDGE ( 'NONE', *, *, #213, .T. ) ;
#55 = PLANE ( 'NONE',  #162 ) ;
#56 = CARTESIAN_POINT ( 'NONE',  ( 0.0000000000000000000, 0.0000000000000000000, 0.0000000000000000000 ) ) ;
#57 = CARTESIAN_POINT ( 'NONE',  ( 0.0000000000000000000, 0.0000000000000000000, -500.0000000000000000 ) ) ;
#58 = DIRECTION ( 'NONE',  ( 1.000000000000000000, 0.0000000000000000000, 0.0000000000000000000 ) ) ;
#59 = SHAPE_DEFINITION_REPRESENTATION ( #234, #231 ) ;
#60 = ORIENTED_EDGE ( 'NONE', *, *, #212, .F. ) ;
#61 = ORIENTED_EDGE ( 'NONE', *, *, #205, .T. ) ;
#62 = DIRECTION ( 'NONE',  ( 0.0000000000000000000, 0.0000000000000000000, 1.000000000000000000 ) ) ;
#63 = ORIENTED_EDGE ( 'NONE', *, *, #196, .T. ) ;
#64 = ORIENTED_EDGE ( 'NONE', *, *, #217, .T. ) ;
#65 =( LENGTH_UNIT ( ) NAMED_UNIT ( * ) SI_UNIT ( .MILLI., .METRE. ) );
#66 = ORIENTED_EDGE ( 'NONE', *, *, #195, .T. ) ;
#67 = ORIENTED_EDGE ( 'NONE', *, *, #217, .F. ) ;
#68 = ORIENTED_EDGE ( 'NONE', *, *, #205, .F. ) ;
#69 = ORIENTED_EDGE ( 'NONE', *, *, #195, .F. ) ;
#70 = ORIENTED_EDGE ( 'NONE', *, *, #196, .F. ) ;
#71 = CARTESIAN_POINT ( 'NONE',  ( -10.00000000000000200, 6.000000000000000000, -500.0000000000000000 ) ) ;
#72 = CARTESIAN_POINT ( 'NONE',  ( 9.999999999999996400, -6.000000000000000000, 500.0000000000000000 ) ) ;
#73 = CARTESIAN_POINT ( 'NONE',  ( -10.00000000000000200, -6.000000000000000000, -500.0000000000000000 ) ) ;
#74 = CARTESIAN_POINT ( 'NONE',  ( -10.00000000000000200, -6.000000000000000000, 500.0000000000000000 ) ) ;
#75 = CARTESIAN_POINT ( 'NONE',  ( 9.999999999999996400, 6.000000000000000000, 500.0000000000000000 ) ) ;
#76 = CARTESIAN_POINT ( 'NONE',  ( 9.999999999999996400, -6.000000000000000000, -500.0000000000000000 ) ) ;
#77 = CARTESIAN_POINT ( 'NONE',  ( 9.999999999999996400, 6.000000000000000000, -500.0000000000000000 ) ) ;
#78 = CARTESIAN_POINT ( 'NONE',  ( -10.00000000000000200, 6.000000000000000000, 500.0000000000000000 ) ) ;
#79 = LINE ( 'NONE', #81, #152 ) ;
#80 = DIRECTION ( 'NONE',  ( 0.0000000000000000000, -1.000000000000000000, 0.0000000000000000000 ) ) ;
#81 = CARTESIAN_POINT ( 'NONE',  ( -10.00000000000000200, 6.000000000000000000, 500.0000000000000000 ) ) ;
#82 = DIRECTION ( 'NONE',  ( -0.0000000000000000000, -0.0000000000000000000, -1.000000000000000000 ) ) ;
#83 = PLANE ( 'NONE',  #156 ) ;
#84 = APPROVAL_STATUS ( 'not_yet_approved' ) ;
#85 = CARTESIAN_POINT ( 'NONE',  ( 9.999999999999996400, 6.000000000000000000, -500.0000000000000000 ) ) ;
#86 = LINE ( 'NONE', #119, #192 ) ;
#87 = LINE ( 'NONE', #85, #187 ) ;
#88 = LINE ( 'NONE', #89, #165 ) ;
#89 = CARTESIAN_POINT ( 'NONE',  ( 9.999999999999996400, 6.000000000000000000, 500.0000000000000000 ) ) ;
#90 = PERSON_AND_ORGANIZATION ( #230, #154 ) ;
#91 = DIRECTION ( 'NONE',  ( -0.0000000000000000000, 1.000000000000000000, -0.0000000000000000000 ) ) ;
#92 = LINE ( 'NONE', #95, #153 ) ;
#93 = ORIENTED_EDGE ( 'NONE', *, *, #207, .T. ) ;
#94 = DIRECTION ( 'NONE',  ( -0.0000000000000000000, 1.000000000000000000, -0.0000000000000000000 ) ) ;
#95 = CARTESIAN_POINT ( 'NONE',  ( -10.00000000000000200, 6.000000000000000000, -500.0000000000000000 ) ) ;
#96 = DIRECTION ( 'NONE',  ( -1.000000000000000000, -0.0000000000000000000, -0.0000000000000000000 ) ) ;
#97 = CARTESIAN_POINT ( 'NONE',  ( -10.00000000000000200, 6.000000000000000000, 500.0000000000000000 ) ) ;
#98 = DIRECTION ( 'NONE',  ( 0.0000000000000000000, -1.000000000000000000, 0.0000000000000000000 ) ) ;
#99 = DIRECTION ( 'NONE',  ( 0.0000000000000000000, -0.0000000000000000000, -1.000000000000000000 ) ) ;
#100 = LINE ( 'NONE', #101, #185 ) ;
#101 = CARTESIAN_POINT ( 'NONE',  ( 9.999999999999996400, -6.000000000000000000, 500.0000000000000000 ) ) ;
#102 = DIRECTION ( 'NONE',  ( -0.0000000000000000000, -0.0000000000000000000, -1.000000000000000000 ) ) ;
#103 = DIRECTION ( 'NONE',  ( -1.000000000000000000, -0.0000000000000000000, -0.0000000000000000000 ) ) ;
#104 = DIRECTION ( 'NONE',  ( 1.000000000000000000, 0.0000000000000000000, 0.0000000000000000000 ) ) ;
#105 = LINE ( 'NONE', #115, #177 ) ;
#106 = LINE ( 'NONE', #107, #150 ) ;
#107 = CARTESIAN_POINT ( 'NONE',  ( -10.00000000000000200, -6.000000000000000000, -500.0000000000000000 ) ) ;
#108 = LINE ( 'NONE', #109, #155 ) ;
#109 = CARTESIAN_POINT ( 'NONE',  ( -10.00000000000000200, 6.000000000000000000, 500.0000000000000000 ) ) ;
#110 = PLANE ( 'NONE',  #151 ) ;
#111 = DIRECTION ( 'NONE',  ( -0.0000000000000000000, -0.0000000000000000000, -1.000000000000000000 ) ) ;
#112 = LINE ( 'NONE', #121, #180 ) ;
#113 = PLANE ( 'NONE',  #173 ) ;
#114 = DIRECTION ( 'NONE',  ( 0.0000000000000000000, -0.0000000000000000000, 1.000000000000000000 ) ) ;
#115 = CARTESIAN_POINT ( 'NONE',  ( 9.999999999999996400, 6.000000000000000000, 500.0000000000000000 ) ) ;
#116 = CARTESIAN_POINT ( 'NONE',  ( -10.00000000000000200, -6.000000000000000000, 500.0000000000000000 ) ) ;
#117 = DIRECTION ( 'NONE',  ( 0.0000000000000000000, 1.000000000000000000, 0.0000000000000000000 ) ) ;
#118 = APPROVAL_ROLE ( '' ) ;
#119 = CARTESIAN_POINT ( 'NONE',  ( -10.00000000000000200, 6.000000000000000000, -500.0000000000000000 ) ) ;
#120 = DIRECTION ( 'NONE',  ( 0.0000000000000000000, -1.000000000000000000, 0.0000000000000000000 ) ) ;
#121 = CARTESIAN_POINT ( 'NONE',  ( -10.00000000000000200, 6.000000000000000000, 500.0000000000000000 ) ) ;
#122 = DIRECTION ( 'NONE',  ( -0.0000000000000000000, 0.0000000000000000000, -1.000000000000000000 ) ) ;
#123 = MECHANICAL_CONTEXT ( 'NONE', #2, 'mechanical' ) ;
#124 = PERSON_AND_ORGANIZATION_ROLE ( 'creator' ) ;
#125 = APPROVAL_DATE_TIME ( #126, #220 ) ;
#126 = DATE_AND_TIME ( #184, #211 ) ;
#127 = PERSON_AND_ORGANIZATION ( #230, #154 ) ;
#128 = PERSON_AND_ORGANIZATION ( #230, #154 ) ;
#129 = PERSON_AND_ORGANIZATION ( #230, #154 ) ;
#130 = APPROVAL_DATE_TIME ( #131, #214 ) ;
#131 = DATE_AND_TIME ( #158, #225 ) ;
#132 = APPROVAL_ROLE ( '' ) ;
#133 = APPROVAL_STATUS ( 'not_yet_approved' ) ;
#134 = PERSON_AND_ORGANIZATION ( #230, #154 ) ;
#135 = DATE_TIME_ROLE ( 'creation_date' ) ;
#136 = DATE_AND_TIME ( #179, #224 ) ;
#137 = PERSON_AND_ORGANIZATION_ROLE ( 'creator' ) ;
#138 = CARTESIAN_POINT ( 'NONE',  ( -10.00000000000000200, -6.000000000000000000, 500.0000000000000000 ) ) ;
#139 = APPROVAL_DATE_TIME ( #140, #215 ) ;
#140 = DATE_AND_TIME ( #160, #198 ) ;
#141 = SECURITY_CLASSIFICATION_LEVEL ( 'unclassified' ) ;
#142 = PERSON_AND_ORGANIZATION ( #230, #154 ) ;
#143 = APPROVAL_ROLE ( '' ) ;
#144 = APPROVAL_STATUS ( 'not_yet_approved' ) ;
#145 = PERSON_AND_ORGANIZATION ( #230, #154 ) ;
#146 = PERSON_AND_ORGANIZATION_ROLE ( 'classification_officer' ) ;
#147 = DATE_TIME_ROLE ( 'classification_date' ) ;
#148 = DATE_AND_TIME ( #167, #228 ) ;
#149 = COORDINATED_UNIVERSAL_TIME_OFFSET ( 9, 0, .AHEAD. ) ;
#150 = VECTOR ( 'NONE', #104, 1000.000000000000000 ) ;
#151 = AXIS2_PLACEMENT_3D ( 'NONE', #116, #117, #114 ) ;
#152 = VECTOR ( 'NONE', #82, 1000.000000000000000 ) ;
#153 = VECTOR ( 'NONE', #96, 1000.000000000000000 ) ;
#154 = ORGANIZATION ( 'UNSPECIFIED', 'UNSPECIFIED', '' ) ;
#155 = VECTOR ( 'NONE', #103, 1000.000000000000000 ) ;
#156 = AXIS2_PLACEMENT_3D ( 'NONE', #97, #98, #99 ) ;
#157 = COORDINATED_UNIVERSAL_TIME_OFFSET ( 9, 0, .AHEAD. ) ;
#158 = CALENDAR_DATE ( 2015, 11, 8 ) ;
#159 = FACE_OUTER_BOUND ( 'NONE', #25, .T. ) ;
#160 = CALENDAR_DATE ( 2015, 11, 8 ) ;
#161 = SECURITY_CLASSIFICATION ( '', '', #141 ) ;
#162 = AXIS2_PLACEMENT_3D ( 'NONE', #29, #6, #122 ) ;
#163 = FACE_OUTER_BOUND ( 'NONE', #32, .T. ) ;
#164 = APPROVAL_PERSON_ORGANIZATION ( #90, #220, #118 ) ;
#165 = VECTOR ( 'NONE', #91, 1000.000000000000000 ) ;
#166 = FACE_OUTER_BOUND ( 'NONE', #24, .T. ) ;
#167 = CALENDAR_DATE ( 2015, 11, 8 ) ;
#168 = VECTOR ( 'NONE', #58, 1000.000000000000000 ) ;
#169 = APPROVAL_PERSON_ORGANIZATION ( #145, #215, #143 ) ;
#170 = CC_DESIGN_APPROVAL ( #215, ( #161 ) ) ;
#171 = AXIS2_PLACEMENT_3D ( 'NONE', #56, #62, #26 ) ;
#172 = APPROVAL_PERSON_ORGANIZATION ( #134, #214, #132 ) ;
#173 = AXIS2_PLACEMENT_3D ( 'NONE', #22, #21, #42 ) ;
#174 = CC_DESIGN_SECURITY_CLASSIFICATION ( #161, ( #181 ) ) ;
#175 = FACE_OUTER_BOUND ( 'NONE', #33, .T. ) ;
#176 = CC_DESIGN_APPROVAL ( #214, ( #181 ) ) ;
#177 = VECTOR ( 'NONE', #111, 1000.000000000000000 ) ;
#178 = COORDINATED_UNIVERSAL_TIME_OFFSET ( 9, 0, .AHEAD. ) ;
#179 = CALENDAR_DATE ( 2015, 11, 8 ) ;
#180 = VECTOR ( 'NONE', #120, 1000.000000000000000 ) ;
#181 = PRODUCT_DEFINITION_FORMATION_WITH_SPECIFIED_SOURCE ( 'ANY', '', #237, .NOT_KNOWN. ) ;
#182 = CC_DESIGN_APPROVAL ( #220, ( #204 ) ) ;
#183 = VECTOR ( 'NONE', #14, 1000.000000000000000 ) ;
#184 = CALENDAR_DATE ( 2015, 11, 8 ) ;
#185 = VECTOR ( 'NONE', #102, 1000.000000000000000 ) ;
#186 = COORDINATED_UNIVERSAL_TIME_OFFSET ( 9, 0, .AHEAD. ) ;
#187 = VECTOR ( 'NONE', #94, 1000.000000000000000 ) ;
#188 = FACE_OUTER_BOUND ( 'NONE', #31, .T. ) ;
#189 = FACE_OUTER_BOUND ( 'NONE', #30, .T. ) ;
#190 = AXIS2_PLACEMENT_3D ( 'NONE', #35, #46, #37 ) ;
#191 = COORDINATED_UNIVERSAL_TIME_OFFSET ( 9, 0, .AHEAD. ) ;
#192 = VECTOR ( 'NONE', #80, 1000.000000000000000 ) ;
#193 = AXIS2_PLACEMENT_3D ( 'NONE', #57, #38, #53 ) ;
#194 = CLOSED_SHELL ( 'NONE', ( #229, #208, #227, #202, #221, #222 ) ) ;
#195 = EDGE_CURVE ( 'NONE', #23, #10, #79, .T. ) ;
#196 = EDGE_CURVE ( 'NONE', #10, #13, #86, .T. ) ;
#197 = CC_DESIGN_PERSON_AND_ORGANIZATION_ASSIGNMENT ( #142, #146, ( #161 ) ) ;
#198 = LOCAL_TIME ( 19, 24, 16.00000000000000000, #178 ) ;
#199 = EDGE_CURVE ( 'NONE', #18, #19, #87, .T. ) ;
#200 = EDGE_CURVE ( 'NONE', #12, #16, #88, .T. ) ;
#201 = EDGE_CURVE ( 'NONE', #19, #10, #92, .T. ) ;
#202 = ADVANCED_FACE ( 'NONE', ( #189 ), #83, .F. ) ;
#203 = EDGE_CURVE ( 'NONE', #12, #18, #100, .T. ) ;
#204 = PRODUCT_DEFINITION ( 'UNKNOWN', '', #181, #236 ) ;
#205 = EDGE_CURVE ( 'NONE', #16, #23, #108, .T. ) ;
#206 = EDGE_CURVE ( 'NONE', #13, #18, #106, .T. ) ;
#207 = EDGE_CURVE ( 'NONE', #16, #19, #105, .T. ) ;
#208 = ADVANCED_FACE ( 'NONE', ( #188 ), #110, .F. ) ;
#209 = CC_DESIGN_PERSON_AND_ORGANIZATION_ASSIGNMENT ( #128, #5, ( #181 ) ) ;
#210 = CC_DESIGN_DATE_AND_TIME_ASSIGNMENT ( #136, #135, ( #204 ) ) ;
#211 = LOCAL_TIME ( 19, 24, 16.00000000000000000, #191 ) ;
#212 = EDGE_CURVE ( 'NONE', #23, #15, #112, .T. ) ;
#213 = EDGE_CURVE ( 'NONE', #15, #12, #28, .T. ) ;
#214 = APPROVAL ( #133, 'UNSPECIFIED' ) ;
#215 = APPROVAL ( #144, 'UNSPECIFIED' ) ;
#216 = CC_DESIGN_PERSON_AND_ORGANIZATION_ASSIGNMENT ( #3, #27, ( #237 ) ) ;
#217 = EDGE_CURVE ( 'NONE', #15, #13, #17, .T. ) ;
#218 = CC_DESIGN_PERSON_AND_ORGANIZATION_ASSIGNMENT ( #127, #137, ( #204 ) ) ;
#219 = CC_DESIGN_PERSON_AND_ORGANIZATION_ASSIGNMENT ( #129, #124, ( #181 ) ) ;
#220 = APPROVAL ( #84, 'UNSPECIFIED' ) ;
#221 = ADVANCED_FACE ( 'NONE', ( #166 ), #113, .T. ) ;
#222 = ADVANCED_FACE ( 'NONE', ( #159 ), #45, .F. ) ;
#223 = CC_DESIGN_DATE_AND_TIME_ASSIGNMENT ( #148, #147, ( #161 ) ) ;
#224 = LOCAL_TIME ( 19, 24, 16.00000000000000000, #157 ) ;
#225 = LOCAL_TIME ( 19, 24, 16.00000000000000000, #149 ) ;
#226 = PRODUCT_RELATED_PRODUCT_CATEGORY ( 'detail', '', ( #237 ) ) ;
#227 = ADVANCED_FACE ( 'NONE', ( #175 ), #49, .F. ) ;
#228 = LOCAL_TIME ( 19, 24, 16.00000000000000000, #186 ) ;
#229 = ADVANCED_FACE ( 'NONE', ( #163 ), #55, .F. ) ;
#230 = PERSON ( 'UNSPECIFIED', 'UNSPECIFIED', 'UNSPECIFIED', ('UNSPECIFIED'), ('UNSPECIFIED'), ('UNSPECIFIED') ) ;
#231 = ADVANCED_BREP_SHAPE_REPRESENTATION ( 'sone3D', ( #235, #171 ), #233 ) ;
#232 = UNCERTAINTY_MEASURE_WITH_UNIT (LENGTH_MEASURE( 1.000000000000000100E-005 ), #65, 'distance_accuracy_value', 'NONE');
#233 =( GEOMETRIC_REPRESENTATION_CONTEXT ( 3 ) GLOBAL_UNCERTAINTY_ASSIGNED_CONTEXT ( ( #232 ) ) GLOBAL_UNIT_ASSIGNED_CONTEXT ( ( #65, #8, #4 ) ) REPRESENTATION_CONTEXT ( 'NONE', 'WORKASPACE' ) );
#234 = PRODUCT_DEFINITION_SHAPE ( 'NONE', 'NONE',  #204 ) ;
#235 = MANIFOLD_SOLID_BREP ( 'ÎÞ½ - µoµ1', #194 ) ;
#236 = DESIGN_CONTEXT ( 'detailed design', #1, 'design' ) ;
#237 = PRODUCT ( 'sone3D', 'sone3D', '', ( #123 ) ) ;
ENDSEC;
END-ISO-10303-21;
