ISO-10303-21;
HEADER;
FILE_DESCRIPTION (( 'STEP AP203' ),
    '1' );
FILE_NAME ('sone3D.STEP',
    '2015-08-11T10:23:59',
    ( '' ),
    ( '' ),
    'SwSTEP 2.0',
    'SolidWorks 2012',
    '' );
FILE_SCHEMA (( 'CONFIG_CONTROL_DESIGN' ));
ENDSEC;

DATA;
#1 = APPLICATION_CONTEXT ( 'configuration controlled 3d designs of mechanical parts and assemblies' ) ;
#2 = APPLICATION_CONTEXT ( 'configuration controlled 3d designs of mechanical parts and assemblies' ) ;
#3 = APPROVAL_STATUS ( 'not_yet_approved' ) ;
#4 = PERSON_AND_ORGANIZATION ( #230, #184 ) ;
#5 = SHAPE_DEFINITION_REPRESENTATION ( #234, #232 ) ;
#6 = DATE_AND_TIME ( #183, #227 ) ;
#7 = PERSON_AND_ORGANIZATION_ROLE ( 'creator' ) ;
#8 = PERSON_AND_ORGANIZATION ( #230, #184 ) ;
#9 = DATE_AND_TIME ( #163, #221 ) ;
#10 = DATE_TIME_ROLE ( 'classification_date' ) ;
#11 = PERSON_AND_ORGANIZATION_ROLE ( 'classification_officer' ) ;
#12 = DIRECTION ( 'NONE',  ( 1.445602896647339200E-016, -1.000000000000000000, 0.0000000000000000000 ) ) ;
#13 = DATE_AND_TIME ( #174, #225 ) ;
#14 = PERSON_AND_ORGANIZATION ( #230, #184 ) ;
#15 = APPROVAL_DATE_TIME ( #30, #226 ) ;
#16 = APPROVAL_ROLE ( '' ) ;
#17 = DATE_AND_TIME ( #172, #199 ) ;
#18 = PERSON_AND_ORGANIZATION ( #230, #184 ) ;
#19 = CARTESIAN_POINT ( 'NONE',  ( 7.500000000000000900, 5.999999999999999100, 500.0000000000000000 ) ) ;
#20 = APPROVAL_STATUS ( 'not_yet_approved' ) ;
#21 = APPROVAL_DATE_TIME ( #13, #202 ) ;
#22 = PERSON_AND_ORGANIZATION_ROLE ( 'design_owner' ) ;
#23 = PERSON_AND_ORGANIZATION ( #230, #184 ) ;
#24 = APPROVAL_DATE_TIME ( #9, #216 ) ;
#25 = LINE ( 'NONE', #101, #181 ) ;
#26 = APPROVAL_ROLE ( '' ) ;
#27 = PERSON_AND_ORGANIZATION_ROLE ( 'design_supplier' ) ;
#28 = DIRECTION ( 'NONE',  ( 1.445602896647339200E-016, -1.000000000000000000, 0.0000000000000000000 ) ) ;
#29 = PERSON_AND_ORGANIZATION_ROLE ( 'creator' ) ;
#30 = DATE_AND_TIME ( #170, #211 ) ;
#31 = PERSON_AND_ORGANIZATION ( #230, #184 ) ;
#32 = LINE ( 'NONE', #19, #194 ) ;
#33 = APPLICATION_PROTOCOL_DEFINITION ( 'international standard', 'config_control_design', 1994, #2 ) ;
#34 = DIRECTION ( 'NONE',  ( 1.000000000000000000, 0.0000000000000000000, 0.0000000000000000000 ) ) ;
#35 = APPROVAL_STATUS ( 'not_yet_approved' ) ;
#36 = APPROVAL_ROLE ( '' ) ;
#37 = PERSON_AND_ORGANIZATION ( #230, #184 ) ;
#38 = DATE_TIME_ROLE ( 'creation_date' ) ;
#39 = LINE ( 'NONE', #42, #160 ) ;
#40 = APPLICATION_PROTOCOL_DEFINITION ( 'international standard', 'config_control_design', 1994, #1 ) ;
#41 = DIRECTION ( 'NONE',  ( 0.0000000000000000000, -0.0000000000000000000, -1.000000000000000000 ) ) ;
#42 = CARTESIAN_POINT ( 'NONE',  ( -7.499999999999997300, -6.000000000000000900, -500.0000000000000000 ) ) ;
#43 = VERTEX_POINT ( 'NONE', #90 ) ;
#44 = VERTEX_POINT ( 'NONE', #91 ) ;
#45 = VERTEX_POINT ( 'NONE', #94 ) ;
#46 = VERTEX_POINT ( 'NONE', #96 ) ;
#47 = MECHANICAL_CONTEXT ( 'NONE', #1, 'mechanical' ) ;
#48 = CARTESIAN_POINT ( 'NONE',  ( -7.499999999999999100, 5.999999999999999100, -500.0000000000000000 ) ) ;
#49 = DIRECTION ( 'NONE',  ( 0.0000000000000000000, 0.0000000000000000000, 1.000000000000000000 ) ) ;
#50 = VERTEX_POINT ( 'NONE', #97 ) ;
#51 = VERTEX_POINT ( 'NONE', #102 ) ;
#52 = VERTEX_POINT ( 'NONE', #103 ) ;
#53 =( LENGTH_UNIT ( ) NAMED_UNIT ( * ) SI_UNIT ( .MILLI., .METRE. ) );
#54 =( NAMED_UNIT ( * ) PLANE_ANGLE_UNIT ( ) SI_UNIT ( $, .RADIAN. ) );
#55 = CARTESIAN_POINT ( 'NONE',  ( 0.0000000000000000000, 0.0000000000000000000, 0.0000000000000000000 ) ) ;
#56 = VERTEX_POINT ( 'NONE', #105 ) ;
#57 = DIRECTION ( 'NONE',  ( 1.000000000000000000, 0.0000000000000000000, 0.0000000000000000000 ) ) ;
#58 = EDGE_LOOP ( 'NONE', ( #87, #81, #77, #64 ) ) ;
#59 = EDGE_LOOP ( 'NONE', ( #85, #79, #78, #83 ) ) ;
#60 = EDGE_LOOP ( 'NONE', ( #80, #86, #84, #82 ) ) ;
#61 = EDGE_LOOP ( 'NONE', ( #66, #70, #73, #88 ) ) ;
#62 = EDGE_LOOP ( 'NONE', ( #69, #75, #76, #72 ) ) ;
#63 = EDGE_LOOP ( 'NONE', ( #71, #68, #67, #65 ) ) ;
#64 = ORIENTED_EDGE ( 'NONE', *, *, #205, .T. ) ;
#65 = ORIENTED_EDGE ( 'NONE', *, *, #201, .T. ) ;
#66 = ORIENTED_EDGE ( 'NONE', *, *, #204, .T. ) ;
#67 = ORIENTED_EDGE ( 'NONE', *, *, #203, .F. ) ;
#68 = ORIENTED_EDGE ( 'NONE', *, *, #224, .F. ) ;
#69 = ORIENTED_EDGE ( 'NONE', *, *, #218, .T. ) ;
#70 = ORIENTED_EDGE ( 'NONE', *, *, #197, .F. ) ;
#71 = ORIENTED_EDGE ( 'NONE', *, *, #200, .T. ) ;
#72 = ORIENTED_EDGE ( 'NONE', *, *, #207, .T. ) ;
#73 = ORIENTED_EDGE ( 'NONE', *, *, #205, .F. ) ;
#74 = PLANE ( 'NONE',  #176 ) ;
#75 = ORIENTED_EDGE ( 'NONE', *, *, #201, .F. ) ;
#76 = ORIENTED_EDGE ( 'NONE', *, *, #222, .F. ) ;
#77 = ORIENTED_EDGE ( 'NONE', *, *, #203, .T. ) ;
#78 = ORIENTED_EDGE ( 'NONE', *, *, #200, .F. ) ;
#79 = ORIENTED_EDGE ( 'NONE', *, *, #204, .F. ) ;
#80 = ORIENTED_EDGE ( 'NONE', *, *, #223, .T. ) ;
#81 = ORIENTED_EDGE ( 'NONE', *, *, #222, .T. ) ;
#82 = ORIENTED_EDGE ( 'NONE', *, *, #197, .T. ) ;
#83 = ORIENTED_EDGE ( 'NONE', *, *, #218, .F. ) ;
#84 = ORIENTED_EDGE ( 'NONE', *, *, #198, .F. ) ;
#85 = ORIENTED_EDGE ( 'NONE', *, *, #223, .F. ) ;
#86 = ORIENTED_EDGE ( 'NONE', *, *, #207, .F. ) ;
#87 = ORIENTED_EDGE ( 'NONE', *, *, #198, .T. ) ;
#88 = ORIENTED_EDGE ( 'NONE', *, *, #224, .T. ) ;
#89 = PLANE ( 'NONE',  #165 ) ;
#90 = CARTESIAN_POINT ( 'NONE',  ( 7.500000000000000900, 5.999999999999999100, 500.0000000000000000 ) ) ;
#91 = CARTESIAN_POINT ( 'NONE',  ( -7.499999999999999100, 5.999999999999999100, 500.0000000000000000 ) ) ;
#92 = PLANE ( 'NONE',  #161 ) ;
#93 = DIRECTION ( 'NONE',  ( -0.0000000000000000000, -0.0000000000000000000, -1.000000000000000000 ) ) ;
#94 = CARTESIAN_POINT ( 'NONE',  ( 7.500000000000002700, -6.000000000000000900, -500.0000000000000000 ) ) ;
#95 = LINE ( 'NONE', #48, #167 ) ;
#96 = CARTESIAN_POINT ( 'NONE',  ( -7.499999999999999100, 5.999999999999999100, -500.0000000000000000 ) ) ;
#97 = CARTESIAN_POINT ( 'NONE',  ( 7.500000000000002700, -6.000000000000000900, 500.0000000000000000 ) ) ;
#98 = CARTESIAN_POINT ( 'NONE',  ( 7.500000000000000900, 5.999999999999999100, 500.0000000000000000 ) ) ;
#99 = CARTESIAN_POINT ( 'NONE',  ( 0.0000000000000000000, 0.0000000000000000000, 500.0000000000000000 ) ) ;
#100 = DIRECTION ( 'NONE',  ( -1.000000000000000000, -1.445602896647339200E-016, 0.0000000000000000000 ) ) ;
#101 = CARTESIAN_POINT ( 'NONE',  ( -7.499999999999997300, -6.000000000000000900, 500.0000000000000000 ) ) ;
#102 = CARTESIAN_POINT ( 'NONE',  ( -7.499999999999997300, -6.000000000000000900, 500.0000000000000000 ) ) ;
#103 = CARTESIAN_POINT ( 'NONE',  ( 7.500000000000000900, 5.999999999999999100, -500.0000000000000000 ) ) ;
#104 = DIRECTION ( 'NONE',  ( 1.000000000000000000, 0.0000000000000000000, 0.0000000000000000000 ) ) ;
#105 = CARTESIAN_POINT ( 'NONE',  ( -7.499999999999997300, -6.000000000000000900, -500.0000000000000000 ) ) ;
#106 = PLANE ( 'NONE',  #185 ) ;
#107 = CARTESIAN_POINT ( 'NONE',  ( 0.0000000000000000000, 0.0000000000000000000, -500.0000000000000000 ) ) ;
#108 =( NAMED_UNIT ( * ) SI_UNIT ( $, .STERADIAN. ) SOLID_ANGLE_UNIT ( ) );
#109 = DIRECTION ( 'NONE',  ( -0.0000000000000000000, 0.0000000000000000000, 1.000000000000000000 ) ) ;
#110 = DIRECTION ( 'NONE',  ( 1.000000000000000000, 0.0000000000000000000, 0.0000000000000000000 ) ) ;
#111 = LINE ( 'NONE', #112, #162 ) ;
#112 = CARTESIAN_POINT ( 'NONE',  ( -7.499999999999999100, 5.999999999999999100, 500.0000000000000000 ) ) ;
#113 = PLANE ( 'NONE',  #154 ) ;
#114 = LINE ( 'NONE', #115, #191 ) ;
#115 = CARTESIAN_POINT ( 'NONE',  ( -7.499999999999999100, 5.999999999999999100, 500.0000000000000000 ) ) ;
#116 = DIRECTION ( 'NONE',  ( 1.445602896647339200E-016, -1.000000000000000000, 0.0000000000000000000 ) ) ;
#117 = LINE ( 'NONE', #118, #151 ) ;
#118 = CARTESIAN_POINT ( 'NONE',  ( 7.500000000000000900, 5.999999999999999100, -500.0000000000000000 ) ) ;
#119 = DIRECTION ( 'NONE',  ( -1.445602896647339200E-016, 1.000000000000000000, -0.0000000000000000000 ) ) ;
#120 = LINE ( 'NONE', #121, #155 ) ;
#121 = CARTESIAN_POINT ( 'NONE',  ( 7.500000000000002700, -6.000000000000000900, 500.0000000000000000 ) ) ;
#122 = LINE ( 'NONE', #123, #193 ) ;
#123 = CARTESIAN_POINT ( 'NONE',  ( 7.500000000000000900, 5.999999999999999100, 500.0000000000000000 ) ) ;
#124 = DIRECTION ( 'NONE',  ( -1.445602896647339200E-016, 1.000000000000000000, -0.0000000000000000000 ) ) ;
#125 = LINE ( 'NONE', #126, #166 ) ;
#126 = CARTESIAN_POINT ( 'NONE',  ( -7.499999999999999100, 5.999999999999999100, -500.0000000000000000 ) ) ;
#127 = DIRECTION ( 'NONE',  ( -0.0000000000000000000, -0.0000000000000000000, -1.000000000000000000 ) ) ;
#128 = CARTESIAN_POINT ( 'NONE',  ( -7.499999999999997300, -6.000000000000000900, 500.0000000000000000 ) ) ;
#129 = DIRECTION ( 'NONE',  ( -1.000000000000000000, -0.0000000000000000000, -0.0000000000000000000 ) ) ;
#130 = CARTESIAN_POINT ( 'NONE',  ( -7.499999999999999100, 5.999999999999999100, 500.0000000000000000 ) ) ;
#131 = DIRECTION ( 'NONE',  ( -0.0000000000000000000, -0.0000000000000000000, -1.000000000000000000 ) ) ;
#132 = LINE ( 'NONE', #128, #169 ) ;
#133 = LINE ( 'NONE', #143, #168 ) ;
#134 = DIRECTION ( 'NONE',  ( -1.000000000000000000, -0.0000000000000000000, -0.0000000000000000000 ) ) ;
#135 = DIRECTION ( 'NONE',  ( -1.445602896647339200E-016, 1.000000000000000000, 0.0000000000000000000 ) ) ;
#136 = DIRECTION ( 'NONE',  ( -0.0000000000000000000, -0.0000000000000000000, -1.000000000000000000 ) ) ;
#137 = DIRECTION ( 'NONE',  ( 0.0000000000000000000, -0.0000000000000000000, 1.000000000000000000 ) ) ;
#138 = DIRECTION ( 'NONE',  ( 1.000000000000000000, 1.445602896647339200E-016, -0.0000000000000000000 ) ) ;
#139 = DIRECTION ( 'NONE',  ( 0.0000000000000000000, -1.000000000000000000, 0.0000000000000000000 ) ) ;
#140 = PLANE ( 'NONE',  #149 ) ;
#141 = DIRECTION ( 'NONE',  ( 0.0000000000000000000, 1.000000000000000000, 0.0000000000000000000 ) ) ;
#142 = CARTESIAN_POINT ( 'NONE',  ( -7.499999999999997300, -6.000000000000000900, 500.0000000000000000 ) ) ;
#143 = CARTESIAN_POINT ( 'NONE',  ( -7.499999999999999100, 5.999999999999999100, 500.0000000000000000 ) ) ;
#144 = PERSON_AND_ORGANIZATION ( #230, #184 ) ;
#145 = CARTESIAN_POINT ( 'NONE',  ( -7.499999999999999100, 5.999999999999999100, 500.0000000000000000 ) ) ;
#146 = SECURITY_CLASSIFICATION_LEVEL ( 'unclassified' ) ;
#147 = DIRECTION ( 'NONE',  ( 1.000000000000000000, 0.0000000000000000000, 0.0000000000000000000 ) ) ;
#148 = DIRECTION ( 'NONE',  ( -0.0000000000000000000, 0.0000000000000000000, 1.000000000000000000 ) ) ;
#149 = AXIS2_PLACEMENT_3D ( 'NONE', #142, #141, #137 ) ;
#150 = COORDINATED_UNIVERSAL_TIME_OFFSET ( 9, 0, .AHEAD. ) ;
#151 = VECTOR ( 'NONE', #119, 1000.000000000000000 ) ;
#152 = APPROVAL_PERSON_ORGANIZATION ( #144, #216, #26 ) ;
#153 = APPROVAL_PERSON_ORGANIZATION ( #37, #202, #36 ) ;
#154 = AXIS2_PLACEMENT_3D ( 'NONE', #130, #138, #135 ) ;
#155 = VECTOR ( 'NONE', #136, 1000.000000000000000 ) ;
#156 = FACE_OUTER_BOUND ( 'NONE', #60, .T. ) ;
#157 = CC_DESIGN_APPROVAL ( #226, ( #189 ) ) ;
#158 = APPROVAL_PERSON_ORGANIZATION ( #18, #226, #16 ) ;
#159 = COORDINATED_UNIVERSAL_TIME_OFFSET ( 9, 0, .AHEAD. ) ;
#160 = VECTOR ( 'NONE', #34, 1000.000000000000000 ) ;
#161 = AXIS2_PLACEMENT_3D ( 'NONE', #99, #148, #147 ) ;
#162 = VECTOR ( 'NONE', #131, 1000.000000000000000 ) ;
#163 = CALENDAR_DATE ( 2015, 11, 8 ) ;
#164 = CC_DESIGN_APPROVAL ( #202, ( #210 ) ) ;
#165 = AXIS2_PLACEMENT_3D ( 'NONE', #98, #100, #28 ) ;
#166 = VECTOR ( 'NONE', #134, 1000.000000000000000 ) ;
#167 = VECTOR ( 'NONE', #12, 1000.000000000000000 ) ;
#168 = VECTOR ( 'NONE', #129, 1000.000000000000000 ) ;
#169 = VECTOR ( 'NONE', #127, 1000.000000000000000 ) ;
#170 = CALENDAR_DATE ( 2015, 11, 8 ) ;
#171 = CLOSED_SHELL ( 'NONE', ( #213, #214, #228, #217, #229, #196 ) ) ;
#172 = CALENDAR_DATE ( 2015, 11, 8 ) ;
#173 = FACE_OUTER_BOUND ( 'NONE', #58, .T. ) ;
#174 = CALENDAR_DATE ( 2015, 11, 8 ) ;
#175 = COORDINATED_UNIVERSAL_TIME_OFFSET ( 9, 0, .AHEAD. ) ;
#176 = AXIS2_PLACEMENT_3D ( 'NONE', #145, #139, #41 ) ;
#177 = CC_DESIGN_APPROVAL ( #216, ( #179 ) ) ;
#178 = CC_DESIGN_SECURITY_CLASSIFICATION ( #189, ( #179 ) ) ;
#179 = PRODUCT_DEFINITION_FORMATION_WITH_SPECIFIED_SOURCE ( 'ANY', '', #237, .NOT_KNOWN. ) ;
#180 = AXIS2_PLACEMENT_3D ( 'NONE', #55, #49, #57 ) ;
#181 = VECTOR ( 'NONE', #104, 1000.000000000000000 ) ;
#182 = COORDINATED_UNIVERSAL_TIME_OFFSET ( 9, 0, .AHEAD. ) ;
#183 = CALENDAR_DATE ( 2015, 11, 8 ) ;
#184 = ORGANIZATION ( 'UNSPECIFIED', 'UNSPECIFIED', '' ) ;
#185 = AXIS2_PLACEMENT_3D ( 'NONE', #107, #109, #110 ) ;
#186 = COORDINATED_UNIVERSAL_TIME_OFFSET ( 9, 0, .AHEAD. ) ;
#187 = FACE_OUTER_BOUND ( 'NONE', #63, .T. ) ;
#188 = FACE_OUTER_BOUND ( 'NONE', #62, .T. ) ;
#189 = SECURITY_CLASSIFICATION ( '', '', #146 ) ;
#190 = FACE_OUTER_BOUND ( 'NONE', #59, .T. ) ;
#191 = VECTOR ( 'NONE', #116, 1000.000000000000000 ) ;
#192 = FACE_OUTER_BOUND ( 'NONE', #61, .T. ) ;
#193 = VECTOR ( 'NONE', #124, 1000.000000000000000 ) ;
#194 = VECTOR ( 'NONE', #93, 1000.000000000000000 ) ;
#195 = CC_DESIGN_PERSON_AND_ORGANIZATION_ASSIGNMENT ( #14, #7, ( #210 ) ) ;
#196 = ADVANCED_FACE ( 'NONE', ( #190 ), #106, .F. ) ;
#197 = EDGE_CURVE ( 'NONE', #44, #46, #111, .T. ) ;
#198 = EDGE_CURVE ( 'NONE', #44, #51, #114, .T. ) ;
#199 = LOCAL_TIME ( 19, 23, 59.00000000000000000, #182 ) ;
#200 = EDGE_CURVE ( 'NONE', #45, #52, #117, .T. ) ;
#201 = EDGE_CURVE ( 'NONE', #50, #45, #120, .T. ) ;
#202 = APPROVAL ( #3, 'UNSPECIFIED' ) ;
#203 = EDGE_CURVE ( 'NONE', #50, #43, #122, .T. ) ;
#204 = EDGE_CURVE ( 'NONE', #52, #46, #125, .T. ) ;
#205 = EDGE_CURVE ( 'NONE', #43, #44, #133, .T. ) ;
#206 = CC_DESIGN_PERSON_AND_ORGANIZATION_ASSIGNMENT ( #23, #11, ( #189 ) ) ;
#207 = EDGE_CURVE ( 'NONE', #51, #56, #132, .T. ) ;
#208 = PRODUCT_RELATED_PRODUCT_CATEGORY ( 'detail', '', ( #237 ) ) ;
#209 = CC_DESIGN_DATE_AND_TIME_ASSIGNMENT ( #6, #38, ( #210 ) ) ;
#210 = PRODUCT_DEFINITION ( 'UNKNOWN', '', #179, #235 ) ;
#211 = LOCAL_TIME ( 19, 23, 59.00000000000000000, #150 ) ;
#212 = CC_DESIGN_PERSON_AND_ORGANIZATION_ASSIGNMENT ( #8, #27, ( #179 ) ) ;
#213 = ADVANCED_FACE ( 'NONE', ( #156 ), #113, .F. ) ;
#214 = ADVANCED_FACE ( 'NONE', ( #188 ), #140, .F. ) ;
#215 = CC_DESIGN_PERSON_AND_ORGANIZATION_ASSIGNMENT ( #4, #22, ( #237 ) ) ;
#216 = APPROVAL ( #20, 'UNSPECIFIED' ) ;
#217 = ADVANCED_FACE ( 'NONE', ( #192 ), #74, .F. ) ;
#218 = EDGE_CURVE ( 'NONE', #56, #45, #39, .T. ) ;
#219 = CC_DESIGN_DATE_AND_TIME_ASSIGNMENT ( #17, #10, ( #189 ) ) ;
#220 = CC_DESIGN_PERSON_AND_ORGANIZATION_ASSIGNMENT ( #31, #29, ( #179 ) ) ;
#221 = LOCAL_TIME ( 19, 23, 59.00000000000000000, #159 ) ;
#222 = EDGE_CURVE ( 'NONE', #51, #50, #25, .T. ) ;
#223 = EDGE_CURVE ( 'NONE', #46, #56, #95, .T. ) ;
#224 = EDGE_CURVE ( 'NONE', #43, #52, #32, .T. ) ;
#225 = LOCAL_TIME ( 19, 23, 59.00000000000000000, #175 ) ;
#226 = APPROVAL ( #35, 'UNSPECIFIED' ) ;
#227 = LOCAL_TIME ( 19, 23, 59.00000000000000000, #186 ) ;
#228 = ADVANCED_FACE ( 'NONE', ( #187 ), #89, .F. ) ;
#229 = ADVANCED_FACE ( 'NONE', ( #173 ), #92, .T. ) ;
#230 = PERSON ( 'UNSPECIFIED', 'UNSPECIFIED', 'UNSPECIFIED', ('UNSPECIFIED'), ('UNSPECIFIED'), ('UNSPECIFIED') ) ;
#231 = UNCERTAINTY_MEASURE_WITH_UNIT (LENGTH_MEASURE( 1.000000000000000100E-005 ), #53, 'distance_accuracy_value', 'NONE');
#232 = ADVANCED_BREP_SHAPE_REPRESENTATION ( 'sone3D', ( #236, #180 ), #233 ) ;
#233 =( GEOMETRIC_REPRESENTATION_CONTEXT ( 3 ) GLOBAL_UNCERTAINTY_ASSIGNED_CONTEXT ( ( #231 ) ) GLOBAL_UNIT_ASSIGNED_CONTEXT ( ( #53, #54, #108 ) ) REPRESENTATION_CONTEXT ( 'NONE', 'WORKASPACE' ) );
#234 = PRODUCT_DEFINITION_SHAPE ( 'NONE', 'NONE',  #210 ) ;
#235 = DESIGN_CONTEXT ( 'detailed design', #2, 'design' ) ;
#236 = MANIFOLD_SOLID_BREP ( 'ÎÞ½ - µoµ1', #171 ) ;
#237 = PRODUCT ( 'sone3D', 'sone3D', '', ( #47 ) ) ;
ENDSEC;
END-ISO-10303-21;
