ISO-10303-21;
HEADER;
FILE_DESCRIPTION (( 'STEP AP203' ),
    '1' );
FILE_NAME ('sone3D.STEP',
    '2015-08-11T10:23:42',
    ( '' ),
    ( '' ),
    'SwSTEP 2.0',
    'SolidWorks 2012',
    '' );
FILE_SCHEMA (( 'CONFIG_CONTROL_DESIGN' ));
ENDSEC;

DATA;
#1 = APPLICATION_CONTEXT ( 'configuration controlled 3d designs of mechanical parts and assemblies' ) ;
#2 = APPLICATION_CONTEXT ( 'configuration controlled 3d designs of mechanical parts and assemblies' ) ;
#3 = PERSON_AND_ORGANIZATION ( #231, #192 ) ;
#4 = ORIENTED_EDGE ( 'NONE', *, *, #207, .F. ) ;
#5 = ORIENTED_EDGE ( 'NONE', *, *, #222, .T. ) ;
#6 = ORIENTED_EDGE ( 'NONE', *, *, #213, .T. ) ;
#7 = LINE ( 'NONE', #40, #155 ) ;
#8 = CARTESIAN_POINT ( 'NONE',  ( 5.999999999999994700, 6.000000000000002700, -500.0000000000000000 ) ) ;
#9 = ORIENTED_EDGE ( 'NONE', *, *, #215, .T. ) ;
#10 = ORIENTED_EDGE ( 'NONE', *, *, #198, .T. ) ;
#11 = DIRECTION ( 'NONE',  ( 1.000000000000000000, -7.228014483236694600E-017, 0.0000000000000000000 ) ) ;
#12 = CARTESIAN_POINT ( 'NONE',  ( -6.000000000000005300, 6.000000000000002700, 500.0000000000000000 ) ) ;
#13 = APPROVAL_STATUS ( 'not_yet_approved' ) ;
#14 = PERSON_AND_ORGANIZATION ( #231, #192 ) ;
#15 = ORIENTED_EDGE ( 'NONE', *, *, #209, .T. ) ;
#16 = DIRECTION ( 'NONE',  ( -1.000000000000000000, 0.0000000000000000000, 0.0000000000000000000 ) ) ;
#17 = DIRECTION ( 'NONE',  ( -0.0000000000000000000, 1.000000000000000000, -0.0000000000000000000 ) ) ;
#18 = PLANE ( 'NONE',  #164 ) ;
#19 = CARTESIAN_POINT ( 'NONE',  ( -6.000000000000008900, -5.999999999999997300, 500.0000000000000000 ) ) ;
#20 = DIRECTION ( 'NONE',  ( 7.228014483236694600E-017, 1.000000000000000000, -0.0000000000000000000 ) ) ;
#21 = LINE ( 'NONE', #79, #166 ) ;
#22 = CARTESIAN_POINT ( 'NONE',  ( 5.999999999999994700, 6.000000000000002700, 500.0000000000000000 ) ) ;
#23 = DIRECTION ( 'NONE',  ( 0.0000000000000000000, 0.0000000000000000000, 1.000000000000000000 ) ) ;
#24 = CARTESIAN_POINT ( 'NONE',  ( -6.000000000000008900, -5.999999999999997300, -500.0000000000000000 ) ) ;
#25 = DIRECTION ( 'NONE',  ( -1.000000000000000000, -0.0000000000000000000, -0.0000000000000000000 ) ) ;
#26 = LINE ( 'NONE', #45, #186 ) ;
#27 = CARTESIAN_POINT ( 'NONE',  ( 5.999999999999994700, -5.999999999999998200, 500.0000000000000000 ) ) ;
#28 = LINE ( 'NONE', #27, #176 ) ;
#29 = PLANE ( 'NONE',  #162 ) ;
#30 = DIRECTION ( 'NONE',  ( -0.0000000000000000000, -0.0000000000000000000, -1.000000000000000000 ) ) ;
#31 = DIRECTION ( 'NONE',  ( 1.000000000000000000, -7.228014483236694600E-017, 0.0000000000000000000 ) ) ;
#32 = DIRECTION ( 'NONE',  ( -1.000000000000000000, 7.228014483236694600E-017, 0.0000000000000000000 ) ) ;
#33 = PERSON_AND_ORGANIZATION ( #231, #192 ) ;
#34 = CARTESIAN_POINT ( 'NONE',  ( -6.000000000000005300, 6.000000000000002700, 500.0000000000000000 ) ) ;
#35 = LINE ( 'NONE', #22, #154 ) ;
#36 = DIRECTION ( 'NONE',  ( -0.0000000000000000000, 1.000000000000000000, -0.0000000000000000000 ) ) ;
#37 = CARTESIAN_POINT ( 'NONE',  ( 5.999999999999994700, 6.000000000000002700, 500.0000000000000000 ) ) ;
#38 = LINE ( 'NONE', #34, #157 ) ;
#39 = DIRECTION ( 'NONE',  ( -2.891205793294678300E-016, -1.000000000000000000, 0.0000000000000000000 ) ) ;
#40 = CARTESIAN_POINT ( 'NONE',  ( -6.000000000000005300, 6.000000000000002700, -500.0000000000000000 ) ) ;
#41 = CARTESIAN_POINT ( 'NONE',  ( -6.000000000000008900, -5.999999999999997300, 500.0000000000000000 ) ) ;
#42 = CARTESIAN_POINT ( 'NONE',  ( 5.999999999999994700, -5.999999999999998200, 500.0000000000000000 ) ) ;
#43 = PERSON_AND_ORGANIZATION_ROLE ( 'classification_officer' ) ;
#44 = APPROVAL_ROLE ( '' ) ;
#45 = CARTESIAN_POINT ( 'NONE',  ( 5.999999999999994700, 6.000000000000002700, -500.0000000000000000 ) ) ;
#46 = CARTESIAN_POINT ( 'NONE',  ( -6.000000000000008900, -5.999999999999997300, 500.0000000000000000 ) ) ;
#47 = ORIENTED_EDGE ( 'NONE', *, *, #197, .F. ) ;
#48 = LINE ( 'NONE', #24, #171 ) ;
#49 = ORIENTED_EDGE ( 'NONE', *, *, #206, .F. ) ;
#50 = PERSON_AND_ORGANIZATION ( #231, #192 ) ;
#51 = APPROVAL_DATE_TIME ( #60, #201 ) ;
#52 = PLANE ( 'NONE',  #170 ) ;
#53 = CARTESIAN_POINT ( 'NONE',  ( 5.999999999999994700, -5.999999999999998200, -500.0000000000000000 ) ) ;
#54 = ORIENTED_EDGE ( 'NONE', *, *, #197, .T. ) ;
#55 = PERSON_AND_ORGANIZATION ( #231, #192 ) ;
#56 = ORIENTED_EDGE ( 'NONE', *, *, #210, .T. ) ;
#57 = PERSON_AND_ORGANIZATION_ROLE ( 'design_supplier' ) ;
#58 = APPROVAL_DATE_TIME ( #65, #225 ) ;
#59 = DATE_AND_TIME ( #183, #212 ) ;
#60 = DATE_AND_TIME ( #153, #204 ) ;
#61 = PERSON_AND_ORGANIZATION ( #231, #192 ) ;
#62 = APPLICATION_PROTOCOL_DEFINITION ( 'international standard', 'config_control_design', 1994, #1 ) ;
#63 = APPROVAL_ROLE ( '' ) ;
#64 = PERSON_AND_ORGANIZATION_ROLE ( 'creator' ) ;
#65 = DATE_AND_TIME ( #181, #203 ) ;
#66 = SECURITY_CLASSIFICATION_LEVEL ( 'unclassified' ) ;
#67 = MECHANICAL_CONTEXT ( 'NONE', #2, 'mechanical' ) ;
#68 = PERSON_AND_ORGANIZATION_ROLE ( 'creator' ) ;
#69 = APPROVAL_STATUS ( 'not_yet_approved' ) ;
#70 = PERSON_AND_ORGANIZATION ( #231, #192 ) ;
#71 = DATE_TIME_ROLE ( 'creation_date' ) ;
#72 = SHAPE_DEFINITION_REPRESENTATION ( #235, #232 ) ;
#73 = DIRECTION ( 'NONE',  ( 1.000000000000000000, 0.0000000000000000000, 0.0000000000000000000 ) ) ;
#74 = PERSON_AND_ORGANIZATION_ROLE ( 'design_owner' ) ;
#75 =( NAMED_UNIT ( * ) SI_UNIT ( $, .STERADIAN. ) SOLID_ANGLE_UNIT ( ) );
#76 = DIRECTION ( 'NONE',  ( 0.0000000000000000000, 0.0000000000000000000, 1.000000000000000000 ) ) ;
#77 = CARTESIAN_POINT ( 'NONE',  ( 0.0000000000000000000, 0.0000000000000000000, 0.0000000000000000000 ) ) ;
#78 = APPLICATION_PROTOCOL_DEFINITION ( 'international standard', 'config_control_design', 1994, #2 ) ;
#79 = CARTESIAN_POINT ( 'NONE',  ( -6.000000000000005300, 6.000000000000002700, -500.0000000000000000 ) ) ;
#80 =( NAMED_UNIT ( * ) PLANE_ANGLE_UNIT ( ) SI_UNIT ( $, .RADIAN. ) );
#81 = LINE ( 'NONE', #88, #156 ) ;
#82 = CARTESIAN_POINT ( 'NONE',  ( -6.000000000000005300, 6.000000000000002700, 500.0000000000000000 ) ) ;
#83 =( LENGTH_UNIT ( ) NAMED_UNIT ( * ) SI_UNIT ( .MILLI., .METRE. ) );
#84 = DIRECTION ( 'NONE',  ( 0.0000000000000000000, -0.0000000000000000000, -1.000000000000000000 ) ) ;
#85 = LINE ( 'NONE', #82, #182 ) ;
#86 = DIRECTION ( 'NONE',  ( -0.0000000000000000000, -0.0000000000000000000, -1.000000000000000000 ) ) ;
#87 = DIRECTION ( 'NONE',  ( -2.891205793294678300E-016, -1.000000000000000000, 0.0000000000000000000 ) ) ;
#88 = CARTESIAN_POINT ( 'NONE',  ( -6.000000000000005300, 6.000000000000002700, 500.0000000000000000 ) ) ;
#89 = DIRECTION ( 'NONE',  ( 1.000000000000000000, -2.891205793294678300E-016, 0.0000000000000000000 ) ) ;
#90 = CARTESIAN_POINT ( 'NONE',  ( -6.000000000000005300, 6.000000000000002700, 500.0000000000000000 ) ) ;
#91 = DIRECTION ( 'NONE',  ( 0.0000000000000000000, -1.000000000000000000, 0.0000000000000000000 ) ) ;
#92 = APPROVAL_STATUS ( 'not_yet_approved' ) ;
#93 = DATE_AND_TIME ( #151, #220 ) ;
#94 = APPROVAL_ROLE ( '' ) ;
#95 = DIRECTION ( 'NONE',  ( 2.891205793294678300E-016, 1.000000000000000000, 0.0000000000000000000 ) ) ;
#96 = LINE ( 'NONE', #108, #178 ) ;
#97 = DIRECTION ( 'NONE',  ( -1.000000000000000000, -0.0000000000000000000, -0.0000000000000000000 ) ) ;
#98 = DIRECTION ( 'NONE',  ( -0.0000000000000000000, -0.0000000000000000000, -1.000000000000000000 ) ) ;
#99 = LINE ( 'NONE', #103, #174 ) ;
#100 = APPROVAL_DATE_TIME ( #93, #224 ) ;
#101 = CARTESIAN_POINT ( 'NONE',  ( -6.000000000000005300, 6.000000000000002700, 500.0000000000000000 ) ) ;
#102 = PERSON_AND_ORGANIZATION ( #231, #192 ) ;
#103 = CARTESIAN_POINT ( 'NONE',  ( 5.999999999999994700, 6.000000000000002700, 500.0000000000000000 ) ) ;
#104 = DIRECTION ( 'NONE',  ( -0.0000000000000000000, -0.0000000000000000000, -1.000000000000000000 ) ) ;
#105 = PLANE ( 'NONE',  #149 ) ;
#106 = DATE_TIME_ROLE ( 'classification_date' ) ;
#107 = DATE_AND_TIME ( #191, #216 ) ;
#108 = CARTESIAN_POINT ( 'NONE',  ( -6.000000000000008900, -5.999999999999997300, 500.0000000000000000 ) ) ;
#109 = EDGE_LOOP ( 'NONE', ( #6, #114, #49, #9 ) ) ;
#110 = EDGE_LOOP ( 'NONE', ( #125, #54, #120, #118 ) ) ;
#111 = EDGE_LOOP ( 'NONE', ( #56, #127, #4, #15 ) ) ;
#112 = VERTEX_POINT ( 'NONE', #42 ) ;
#113 = ORIENTED_EDGE ( 'NONE', *, *, #229, .T. ) ;
#114 = ORIENTED_EDGE ( 'NONE', *, *, #229, .F. ) ;
#115 = ORIENTED_EDGE ( 'NONE', *, *, #222, .F. ) ;
#116 = VERTEX_POINT ( 'NONE', #12 ) ;
#117 = VERTEX_POINT ( 'NONE', #138 ) ;
#118 = ORIENTED_EDGE ( 'NONE', *, *, #206, .T. ) ;
#119 = ORIENTED_EDGE ( 'NONE', *, *, #213, .F. ) ;
#120 = ORIENTED_EDGE ( 'NONE', *, *, #207, .T. ) ;
#121 = CARTESIAN_POINT ( 'NONE',  ( -6.000000000000008900, -5.999999999999997300, -500.0000000000000000 ) ) ;
#122 = PLANE ( 'NONE',  #169 ) ;
#123 = CARTESIAN_POINT ( 'NONE',  ( 0.0000000000000000000, 0.0000000000000000000, 500.0000000000000000 ) ) ;
#124 = PLANE ( 'NONE',  #189 ) ;
#125 = ORIENTED_EDGE ( 'NONE', *, *, #228, .T. ) ;
#126 = ORIENTED_EDGE ( 'NONE', *, *, #198, .F. ) ;
#127 = ORIENTED_EDGE ( 'NONE', *, *, #215, .F. ) ;
#128 = ORIENTED_EDGE ( 'NONE', *, *, #209, .F. ) ;
#129 = ORIENTED_EDGE ( 'NONE', *, *, #210, .F. ) ;
#130 = VERTEX_POINT ( 'NONE', #139 ) ;
#131 = EDGE_LOOP ( 'NONE', ( #137, #115, #148, #113 ) ) ;
#132 = DIRECTION ( 'NONE',  ( 1.000000000000000000, 0.0000000000000000000, -0.0000000000000000000 ) ) ;
#133 = DIRECTION ( 'NONE',  ( 1.000000000000000000, 0.0000000000000000000, -0.0000000000000000000 ) ) ;
#134 = LINE ( 'NONE', #19, #150 ) ;
#135 = DIRECTION ( 'NONE',  ( 0.0000000000000000000, 0.0000000000000000000, 1.000000000000000000 ) ) ;
#136 = CARTESIAN_POINT ( 'NONE',  ( 0.0000000000000000000, 0.0000000000000000000, -500.0000000000000000 ) ) ;
#137 = ORIENTED_EDGE ( 'NONE', *, *, #208, .T. ) ;
#138 = CARTESIAN_POINT ( 'NONE',  ( 5.999999999999994700, 6.000000000000002700, 500.0000000000000000 ) ) ;
#139 = CARTESIAN_POINT ( 'NONE',  ( -6.000000000000005300, 6.000000000000002700, -500.0000000000000000 ) ) ;
#140 = EDGE_LOOP ( 'NONE', ( #145, #119, #129, #126 ) ) ;
#141 = VERTEX_POINT ( 'NONE', #53 ) ;
#142 = DIRECTION ( 'NONE',  ( 0.0000000000000000000, 0.0000000000000000000, 1.000000000000000000 ) ) ;
#143 = VERTEX_POINT ( 'NONE', #8 ) ;
#144 = VERTEX_POINT ( 'NONE', #41 ) ;
#145 = ORIENTED_EDGE ( 'NONE', *, *, #208, .F. ) ;
#146 = VERTEX_POINT ( 'NONE', #121 ) ;
#147 = EDGE_LOOP ( 'NONE', ( #10, #128, #47, #5 ) ) ;
#148 = ORIENTED_EDGE ( 'NONE', *, *, #228, .F. ) ;
#149 = AXIS2_PLACEMENT_3D ( 'NONE', #90, #91, #84 ) ;
#150 = VECTOR ( 'NONE', #11, 1000.000000000000000 ) ;
#151 = CALENDAR_DATE ( 2015, 11, 8 ) ;
#152 = PRODUCT_DEFINITION_FORMATION_WITH_SPECIFIED_SOURCE ( 'ANY', '', #237, .NOT_KNOWN. ) ;
#153 = CALENDAR_DATE ( 2015, 11, 8 ) ;
#154 = VECTOR ( 'NONE', #36, 1000.000000000000000 ) ;
#155 = VECTOR ( 'NONE', #39, 1000.000000000000000 ) ;
#156 = VECTOR ( 'NONE', #86, 1000.000000000000000 ) ;
#157 = VECTOR ( 'NONE', #25, 1000.000000000000000 ) ;
#158 = SECURITY_CLASSIFICATION ( '', '', #66 ) ;
#159 = CC_DESIGN_APPROVAL ( #224, ( #158 ) ) ;
#160 = CLOSED_SHELL ( 'NONE', ( #221, #205, #199, #226, #195, #196 ) ) ;
#161 = COORDINATED_UNIVERSAL_TIME_OFFSET ( 9, 0, .AHEAD. ) ;
#162 = AXIS2_PLACEMENT_3D ( 'NONE', #46, #20, #32 ) ;
#163 = FACE_OUTER_BOUND ( 'NONE', #140, .T. ) ;
#164 = AXIS2_PLACEMENT_3D ( 'NONE', #101, #89, #95 ) ;
#165 = COORDINATED_UNIVERSAL_TIME_OFFSET ( 9, 0, .AHEAD. ) ;
#166 = VECTOR ( 'NONE', #97, 1000.000000000000000 ) ;
#167 = APPROVAL_PERSON_ORGANIZATION ( #61, #225, #44 ) ;
#168 = FACE_OUTER_BOUND ( 'NONE', #109, .T. ) ;
#169 = AXIS2_PLACEMENT_3D ( 'NONE', #123, #142, #132 ) ;
#170 = AXIS2_PLACEMENT_3D ( 'NONE', #37, #16, #23 ) ;
#171 = VECTOR ( 'NONE', #31, 1000.000000000000000 ) ;
#172 = FACE_OUTER_BOUND ( 'NONE', #111, .T. ) ;
#173 = COORDINATED_UNIVERSAL_TIME_OFFSET ( 9, 0, .AHEAD. ) ;
#174 = VECTOR ( 'NONE', #104, 1000.000000000000000 ) ;
#175 = FACE_OUTER_BOUND ( 'NONE', #147, .T. ) ;
#176 = VECTOR ( 'NONE', #30, 1000.000000000000000 ) ;
#177 = FACE_OUTER_BOUND ( 'NONE', #131, .T. ) ;
#178 = VECTOR ( 'NONE', #98, 1000.000000000000000 ) ;
#179 = APPROVAL_PERSON_ORGANIZATION ( #50, #201, #63 ) ;
#180 = CC_DESIGN_SECURITY_CLASSIFICATION ( #158, ( #152 ) ) ;
#181 = CALENDAR_DATE ( 2015, 11, 8 ) ;
#182 = VECTOR ( 'NONE', #87, 1000.000000000000000 ) ;
#183 = CALENDAR_DATE ( 2015, 11, 8 ) ;
#184 = COORDINATED_UNIVERSAL_TIME_OFFSET ( 9, 0, .AHEAD. ) ;
#185 = APPROVAL_PERSON_ORGANIZATION ( #102, #224, #94 ) ;
#186 = VECTOR ( 'NONE', #17, 1000.000000000000000 ) ;
#187 = COORDINATED_UNIVERSAL_TIME_OFFSET ( 9, 0, .AHEAD. ) ;
#188 = CC_DESIGN_APPROVAL ( #201, ( #152 ) ) ;
#189 = AXIS2_PLACEMENT_3D ( 'NONE', #136, #135, #133 ) ;
#190 = AXIS2_PLACEMENT_3D ( 'NONE', #77, #76, #73 ) ;
#191 = CALENDAR_DATE ( 2015, 11, 8 ) ;
#192 = ORGANIZATION ( 'UNSPECIFIED', 'UNSPECIFIED', '' ) ;
#193 = FACE_OUTER_BOUND ( 'NONE', #110, .T. ) ;
#194 = CC_DESIGN_APPROVAL ( #225, ( #214 ) ) ;
#195 = ADVANCED_FACE ( 'NONE', ( #193 ), #122, .T. ) ;
#196 = ADVANCED_FACE ( 'NONE', ( #163 ), #124, .F. ) ;
#197 = EDGE_CURVE ( 'NONE', #144, #112, #134, .T. ) ;
#198 = EDGE_CURVE ( 'NONE', #146, #141, #48, .T. ) ;
#199 = ADVANCED_FACE ( 'NONE', ( #172 ), #52, .F. ) ;
#200 = PRODUCT_RELATED_PRODUCT_CATEGORY ( 'detail', '', ( #237 ) ) ;
#201 = APPROVAL ( #69, 'UNSPECIFIED' ) ;
#202 = CC_DESIGN_PERSON_AND_ORGANIZATION_ASSIGNMENT ( #14, #43, ( #158 ) ) ;
#203 = LOCAL_TIME ( 19, 23, 42.00000000000000000, #173 ) ;
#204 = LOCAL_TIME ( 19, 23, 42.00000000000000000, #184 ) ;
#205 = ADVANCED_FACE ( 'NONE', ( #175 ), #29, .F. ) ;
#206 = EDGE_CURVE ( 'NONE', #117, #116, #38, .T. ) ;
#207 = EDGE_CURVE ( 'NONE', #112, #117, #35, .T. ) ;
#208 = EDGE_CURVE ( 'NONE', #130, #146, #7, .T. ) ;
#209 = EDGE_CURVE ( 'NONE', #112, #141, #28, .T. ) ;
#210 = EDGE_CURVE ( 'NONE', #141, #143, #26, .T. ) ;
#211 = CC_DESIGN_PERSON_AND_ORGANIZATION_ASSIGNMENT ( #55, #74, ( #237 ) ) ;
#212 = LOCAL_TIME ( 19, 23, 42.00000000000000000, #187 ) ;
#213 = EDGE_CURVE ( 'NONE', #143, #130, #21, .T. ) ;
#214 = PRODUCT_DEFINITION ( 'UNKNOWN', '', #152, #234 ) ;
#215 = EDGE_CURVE ( 'NONE', #117, #143, #99, .T. ) ;
#216 = LOCAL_TIME ( 19, 23, 42.00000000000000000, #161 ) ;
#217 = CC_DESIGN_PERSON_AND_ORGANIZATION_ASSIGNMENT ( #3, #64, ( #152 ) ) ;
#218 = CC_DESIGN_PERSON_AND_ORGANIZATION_ASSIGNMENT ( #70, #57, ( #152 ) ) ;
#219 = CC_DESIGN_DATE_AND_TIME_ASSIGNMENT ( #59, #71, ( #214 ) ) ;
#220 = LOCAL_TIME ( 19, 23, 42.00000000000000000, #165 ) ;
#221 = ADVANCED_FACE ( 'NONE', ( #177 ), #18, .F. ) ;
#222 = EDGE_CURVE ( 'NONE', #144, #146, #96, .T. ) ;
#223 = CC_DESIGN_DATE_AND_TIME_ASSIGNMENT ( #107, #106, ( #158 ) ) ;
#224 = APPROVAL ( #92, 'UNSPECIFIED' ) ;
#225 = APPROVAL ( #13, 'UNSPECIFIED' ) ;
#226 = ADVANCED_FACE ( 'NONE', ( #168 ), #105, .F. ) ;
#227 = CC_DESIGN_PERSON_AND_ORGANIZATION_ASSIGNMENT ( #33, #68, ( #214 ) ) ;
#228 = EDGE_CURVE ( 'NONE', #116, #144, #85, .T. ) ;
#229 = EDGE_CURVE ( 'NONE', #116, #130, #81, .T. ) ;
#230 = UNCERTAINTY_MEASURE_WITH_UNIT (LENGTH_MEASURE( 1.000000000000000100E-005 ), #83, 'distance_accuracy_value', 'NONE');
#231 = PERSON ( 'UNSPECIFIED', 'UNSPECIFIED', 'UNSPECIFIED', ('UNSPECIFIED'), ('UNSPECIFIED'), ('UNSPECIFIED') ) ;
#232 = ADVANCED_BREP_SHAPE_REPRESENTATION ( 'sone3D', ( #236, #190 ), #233 ) ;
#233 =( GEOMETRIC_REPRESENTATION_CONTEXT ( 3 ) GLOBAL_UNCERTAINTY_ASSIGNED_CONTEXT ( ( #230 ) ) GLOBAL_UNIT_ASSIGNED_CONTEXT ( ( #83, #80, #75 ) ) REPRESENTATION_CONTEXT ( 'NONE', 'WORKASPACE' ) );
#234 = DESIGN_CONTEXT ( 'detailed design', #1, 'design' ) ;
#235 = PRODUCT_DEFINITION_SHAPE ( 'NONE', 'NONE',  #214 ) ;
#236 = MANIFOLD_SOLID_BREP ( 'ÎÞ½ - µoµ1', #160 ) ;
#237 = PRODUCT ( 'sone3D', 'sone3D', '', ( #67 ) ) ;
ENDSEC;
END-ISO-10303-21;
