ISO-10303-21;
HEADER;
FILE_DESCRIPTION (( 'STEP AP203' ),
    '1' );
FILE_NAME ('sone3D.STEP',
    '2015-08-11T10:22:57',
    ( '' ),
    ( '' ),
    'SwSTEP 2.0',
    'SolidWorks 2012',
    '' );
FILE_SCHEMA (( 'CONFIG_CONTROL_DESIGN' ));
ENDSEC;

DATA;
#1 = DESIGN_CONTEXT ( 'detailed design', #89, 'design' ) ;
#2 = MANIFOLD_SOLID_BREP ( 'ÎÞ½ - µoµ1', #59 ) ;
#3 = PRODUCT_DEFINITION_SHAPE ( 'NONE', 'NONE',  #35 ) ;
#4 = CC_DESIGN_PERSON_AND_ORGANIZATION_ASSIGNMENT ( #215, #214, ( #69 ) ) ;
#5 = APPROVAL ( #211, 'UNSPECIFIED' ) ;
#6 = LOCAL_TIME ( 19, 22, 57.00000000000000000, #43 ) ;
#7 = CC_DESIGN_PERSON_AND_ORGANIZATION_ASSIGNMENT ( #228, #227, ( #64 ) ) ;
#8 = CC_DESIGN_PERSON_AND_ORGANIZATION_ASSIGNMENT ( #226, #225, ( #64 ) ) ;
#9 = CC_DESIGN_DATE_AND_TIME_ASSIGNMENT ( #213, #221, ( #69 ) ) ;
#10 = EDGE_CURVE ( 'NONE', #100, #96, #108, .T. ) ;
#11 = EDGE_CURVE ( 'NONE', #98, #92, #112, .T. ) ;
#12 = EDGE_CURVE ( 'NONE', #99, #97, #118, .T. ) ;
#13 = ADVANCED_FACE ( 'NONE', ( #44 ), #111, .F. ) ;
#14 = LOCAL_TIME ( 19, 22, 57.00000000000000000, #60 ) ;
#15 = ADVANCED_FACE ( 'NONE', ( #78 ), #133, .F. ) ;
#16 = PRODUCT_RELATED_PRODUCT_CATEGORY ( 'detail', '', ( #91 ) ) ;
#17 = CC_DESIGN_DATE_AND_TIME_ASSIGNMENT ( #218, #217, ( #35 ) ) ;
#18 = ADVANCED_FACE ( 'NONE', ( #63 ), #140, .F. ) ;
#19 = EDGE_CURVE ( 'NONE', #97, #96, #147, .T. ) ;
#20 = ADVANCED_FACE ( 'NONE', ( #53 ), #95, .F. ) ;
#21 = EDGE_CURVE ( 'NONE', #96, #94, #158, .T. ) ;
#22 = ADVANCED_FACE ( 'NONE', ( #52 ), #196, .T. ) ;
#23 = EDGE_CURVE ( 'NONE', #93, #98, #205, .T. ) ;
#24 = EDGE_CURVE ( 'NONE', #93, #94, #201, .T. ) ;
#25 = APPROVAL ( #224, 'UNSPECIFIED' ) ;
#26 = LOCAL_TIME ( 19, 22, 57.00000000000000000, #80 ) ;
#27 = CC_DESIGN_PERSON_AND_ORGANIZATION_ASSIGNMENT ( #152, #187, ( #91 ) ) ;
#28 = EDGE_CURVE ( 'NONE', #100, #93, #132, .T. ) ;
#29 = ADVANCED_FACE ( 'NONE', ( #67 ), #143, .F. ) ;
#30 = EDGE_CURVE ( 'NONE', #92, #100, #232, .T. ) ;
#31 = APPROVAL ( #181, 'UNSPECIFIED' ) ;
#32 = EDGE_CURVE ( 'NONE', #98, #99, #164, .T. ) ;
#33 = EDGE_CURVE ( 'NONE', #92, #97, #161, .T. ) ;
#34 = LOCAL_TIME ( 19, 22, 57.00000000000000000, #88 ) ;
#35 = PRODUCT_DEFINITION ( 'UNKNOWN', '', #64, #1 ) ;
#36 = CC_DESIGN_PERSON_AND_ORGANIZATION_ASSIGNMENT ( #220, #219, ( #35 ) ) ;
#37 = EDGE_CURVE ( 'NONE', #94, #99, #168, .T. ) ;
#38 = LOCAL_TIME ( 19, 22, 57.00000000000000000, #75 ) ;
#39 =( GEOMETRIC_REPRESENTATION_CONTEXT ( 3 ) GLOBAL_UNCERTAINTY_ASSIGNED_CONTEXT ( ( #42 ) ) GLOBAL_UNIT_ASSIGNED_CONTEXT ( ( #167, #172, #188 ) ) REPRESENTATION_CONTEXT ( 'NONE', 'WORKASPACE' ) );
#40 = PERSON ( 'UNSPECIFIED', 'UNSPECIFIED', 'UNSPECIFIED', ('UNSPECIFIED'), ('UNSPECIFIED'), ('UNSPECIFIED') ) ;
#41 = ADVANCED_BREP_SHAPE_REPRESENTATION ( 'sone3D', ( #2, #76 ), #39 ) ;
#42 = UNCERTAINTY_MEASURE_WITH_UNIT (LENGTH_MEASURE( 1.000000000000000100E-005 ), #167, 'distance_accuracy_value', 'NONE');
#43 = COORDINATED_UNIVERSAL_TIME_OFFSET ( 9, 0, .AHEAD. ) ;
#44 = FACE_OUTER_BOUND ( 'NONE', #106, .T. ) ;
#45 = VECTOR ( 'NONE', #195, 1000.000000000000000 ) ;
#46 = CC_DESIGN_APPROVAL ( #31, ( #35 ) ) ;
#47 = AXIS2_PLACEMENT_3D ( 'NONE', #138, #142, #139 ) ;
#48 = VECTOR ( 'NONE', #162, 1000.000000000000000 ) ;
#49 = AXIS2_PLACEMENT_3D ( 'NONE', #122, #123, #124 ) ;
#50 = VECTOR ( 'NONE', #171, 1000.000000000000000 ) ;
#51 = VECTOR ( 'NONE', #121, 1000.000000000000000 ) ;
#52 = FACE_OUTER_BOUND ( 'NONE', #105, .T. ) ;
#53 = FACE_OUTER_BOUND ( 'NONE', #101, .T. ) ;
#54 = APPROVAL_PERSON_ORGANIZATION ( #182, #31, #180 ) ;
#55 = CALENDAR_DATE ( 2015, 11, 8 ) ;
#56 = VECTOR ( 'NONE', #129, 1000.000000000000000 ) ;
#57 = VECTOR ( 'NONE', #203, 1000.000000000000000 ) ;
#58 = AXIS2_PLACEMENT_3D ( 'NONE', #153, #154, #157 ) ;
#59 = CLOSED_SHELL ( 'NONE', ( #20, #15, #18, #13, #22, #29 ) ) ;
#60 = COORDINATED_UNIVERSAL_TIME_OFFSET ( 9, 0, .AHEAD. ) ;
#61 = VECTOR ( 'NONE', #177, 1000.000000000000000 ) ;
#62 = VECTOR ( 'NONE', #114, 1000.000000000000000 ) ;
#63 = FACE_OUTER_BOUND ( 'NONE', #103, .T. ) ;
#64 = PRODUCT_DEFINITION_FORMATION_WITH_SPECIFIED_SOURCE ( 'ANY', '', #91, .NOT_KNOWN. ) ;
#65 = VECTOR ( 'NONE', #233, 1000.000000000000000 ) ;
#66 = ORGANIZATION ( 'UNSPECIFIED', 'UNSPECIFIED', '' ) ;
#67 = FACE_OUTER_BOUND ( 'NONE', #104, .T. ) ;
#68 = VECTOR ( 'NONE', #110, 1000.000000000000000 ) ;
#69 = SECURITY_CLASSIFICATION ( '', '', #216 ) ;
#70 = VECTOR ( 'NONE', #236, 1000.000000000000000 ) ;
#71 = AXIS2_PLACEMENT_3D ( 'NONE', #197, #198, #204 ) ;
#72 = CC_DESIGN_SECURITY_CLASSIFICATION ( #69, ( #64 ) ) ;
#73 = AXIS2_PLACEMENT_3D ( 'NONE', #141, #145, #146 ) ;
#74 = AXIS2_PLACEMENT_3D ( 'NONE', #237, #230, #231 ) ;
#75 = COORDINATED_UNIVERSAL_TIME_OFFSET ( 9, 0, .AHEAD. ) ;
#76 = AXIS2_PLACEMENT_3D ( 'NONE', #190, #185, #184 ) ;
#77 = CALENDAR_DATE ( 2015, 11, 8 ) ;
#78 = FACE_OUTER_BOUND ( 'NONE', #102, .T. ) ;
#79 = CALENDAR_DATE ( 2015, 11, 8 ) ;
#80 = COORDINATED_UNIVERSAL_TIME_OFFSET ( 9, 0, .AHEAD. ) ;
#81 = CC_DESIGN_APPROVAL ( #5, ( #64 ) ) ;
#82 = CALENDAR_DATE ( 2015, 11, 8 ) ;
#83 = CC_DESIGN_APPROVAL ( #25, ( #69 ) ) ;
#84 = CALENDAR_DATE ( 2015, 11, 8 ) ;
#85 = APPROVAL_PERSON_ORGANIZATION ( #212, #5, #210 ) ;
#86 = APPROVAL_PERSON_ORGANIZATION ( #223, #25, #222 ) ;
#87 = VECTOR ( 'NONE', #149, 1000.000000000000000 ) ;
#88 = COORDINATED_UNIVERSAL_TIME_OFFSET ( 9, 0, .AHEAD. ) ;
#89 = APPLICATION_CONTEXT ( 'configuration controlled 3d designs of mechanical parts and assemblies' ) ;
#90 = APPLICATION_CONTEXT ( 'configuration controlled 3d designs of mechanical parts and assemblies' ) ;
#91 = PRODUCT ( 'sone3D', 'sone3D', '', ( #150 ) ) ;
#92 = VERTEX_POINT ( 'NONE', #170 ) ;
#93 = VERTEX_POINT ( 'NONE', #169 ) ;
#94 = VERTEX_POINT ( 'NONE', #175 ) ;
#95 = PLANE ( 'NONE',  #58 ) ;
#96 = VERTEX_POINT ( 'NONE', #174 ) ;
#97 = VERTEX_POINT ( 'NONE', #173 ) ;
#98 = VERTEX_POINT ( 'NONE', #165 ) ;
#99 = VERTEX_POINT ( 'NONE', #176 ) ;
#100 = VERTEX_POINT ( 'NONE', #166 ) ;
#101 = EDGE_LOOP ( 'NONE', ( #155, #107, #156, #117 ) ) ;
#102 = EDGE_LOOP ( 'NONE', ( #116, #134, #115, #130 ) ) ;
#103 = EDGE_LOOP ( 'NONE', ( #128, #126, #127, #125 ) ) ;
#104 = EDGE_LOOP ( 'NONE', ( #229, #144, #119, #151 ) ) ;
#105 = EDGE_LOOP ( 'NONE', ( #207, #192, #235, #135 ) ) ;
#106 = EDGE_LOOP ( 'NONE', ( #137, #136, #131, #206 ) ) ;
#107 = ORIENTED_EDGE ( 'NONE', *, *, #10, .F. ) ;
#108 = LINE ( 'NONE', #109, #68 ) ;
#109 = CARTESIAN_POINT ( 'NONE',  ( -19.99999999999999300, -5.000000000000001800, 500.0000000000000000 ) ) ;
#110 = DIRECTION ( 'NONE',  ( -0.0000000000000000000, -0.0000000000000000000, -1.000000000000000000 ) ) ;
#111 = PLANE ( 'NONE',  #49 ) ;
#112 = LINE ( 'NONE', #113, #62 ) ;
#113 = CARTESIAN_POINT ( 'NONE',  ( -19.99999999999999600, 4.999999999999998200, 500.0000000000000000 ) ) ;
#114 = DIRECTION ( 'NONE',  ( -1.000000000000000000, -0.0000000000000000000, -0.0000000000000000000 ) ) ;
#115 = ORIENTED_EDGE ( 'NONE', *, *, #28, .F. ) ;
#116 = ORIENTED_EDGE ( 'NONE', *, *, #21, .T. ) ;
#117 = ORIENTED_EDGE ( 'NONE', *, *, #33, .T. ) ;
#118 = LINE ( 'NONE', #120, #51 ) ;
#119 = ORIENTED_EDGE ( 'NONE', *, *, #37, .F. ) ;
#120 = CARTESIAN_POINT ( 'NONE',  ( -19.99999999999999600, 4.999999999999998200, -500.0000000000000000 ) ) ;
#121 = DIRECTION ( 'NONE',  ( -1.000000000000000000, -0.0000000000000000000, -0.0000000000000000000 ) ) ;
#122 = CARTESIAN_POINT ( 'NONE',  ( -19.99999999999999600, 4.999999999999998200, 500.0000000000000000 ) ) ;
#123 = DIRECTION ( 'NONE',  ( 0.0000000000000000000, -1.000000000000000000, 0.0000000000000000000 ) ) ;
#124 = DIRECTION ( 'NONE',  ( 0.0000000000000000000, -0.0000000000000000000, -1.000000000000000000 ) ) ;
#125 = ORIENTED_EDGE ( 'NONE', *, *, #24, .T. ) ;
#126 = ORIENTED_EDGE ( 'NONE', *, *, #32, .F. ) ;
#127 = ORIENTED_EDGE ( 'NONE', *, *, #23, .F. ) ;
#128 = ORIENTED_EDGE ( 'NONE', *, *, #37, .T. ) ;
#129 = DIRECTION ( 'NONE',  ( 3.469446951953614200E-016, -1.000000000000000000, 0.0000000000000000000 ) ) ;
#130 = ORIENTED_EDGE ( 'NONE', *, *, #10, .T. ) ;
#131 = ORIENTED_EDGE ( 'NONE', *, *, #11, .F. ) ;
#132 = LINE ( 'NONE', #234, #70 ) ;
#133 = PLANE ( 'NONE',  #47 ) ;
#134 = ORIENTED_EDGE ( 'NONE', *, *, #24, .F. ) ;
#135 = ORIENTED_EDGE ( 'NONE', *, *, #11, .T. ) ;
#136 = ORIENTED_EDGE ( 'NONE', *, *, #33, .F. ) ;
#137 = ORIENTED_EDGE ( 'NONE', *, *, #12, .T. ) ;
#138 = CARTESIAN_POINT ( 'NONE',  ( -19.99999999999999300, -5.000000000000001800, 500.0000000000000000 ) ) ;
#139 = DIRECTION ( 'NONE',  ( 0.0000000000000000000, -0.0000000000000000000, 1.000000000000000000 ) ) ;
#140 = PLANE ( 'NONE',  #73 ) ;
#141 = CARTESIAN_POINT ( 'NONE',  ( 20.00000000000000400, 4.999999999999998200, 500.0000000000000000 ) ) ;
#142 = DIRECTION ( 'NONE',  ( 0.0000000000000000000, 1.000000000000000000, 0.0000000000000000000 ) ) ;
#143 = PLANE ( 'NONE',  #74 ) ;
#144 = ORIENTED_EDGE ( 'NONE', *, *, #12, .F. ) ;
#145 = DIRECTION ( 'NONE',  ( -1.000000000000000000, 3.469446951953614200E-016, 0.0000000000000000000 ) ) ;
#146 = DIRECTION ( 'NONE',  ( -3.469446951953614200E-016, -1.000000000000000000, 0.0000000000000000000 ) ) ;
#147 = LINE ( 'NONE', #148, #87 ) ;
#148 = CARTESIAN_POINT ( 'NONE',  ( -19.99999999999999600, 4.999999999999998200, -500.0000000000000000 ) ) ;
#149 = DIRECTION ( 'NONE',  ( 3.469446951953614200E-016, -1.000000000000000000, 0.0000000000000000000 ) ) ;
#150 = MECHANICAL_CONTEXT ( 'NONE', #90, 'mechanical' ) ;
#151 = ORIENTED_EDGE ( 'NONE', *, *, #21, .F. ) ;
#152 = PERSON_AND_ORGANIZATION ( #40, #66 ) ;
#153 = CARTESIAN_POINT ( 'NONE',  ( -19.99999999999999600, 4.999999999999998200, 500.0000000000000000 ) ) ;
#154 = DIRECTION ( 'NONE',  ( 1.000000000000000000, 3.469446951953614200E-016, -0.0000000000000000000 ) ) ;
#155 = ORIENTED_EDGE ( 'NONE', *, *, #19, .T. ) ;
#156 = ORIENTED_EDGE ( 'NONE', *, *, #30, .F. ) ;
#157 = DIRECTION ( 'NONE',  ( -3.469446951953614200E-016, 1.000000000000000000, 0.0000000000000000000 ) ) ;
#158 = LINE ( 'NONE', #191, #45 ) ;
#159 = CARTESIAN_POINT ( 'NONE',  ( 20.00000000000000400, 4.999999999999998200, 500.0000000000000000 ) ) ;
#160 = CARTESIAN_POINT ( 'NONE',  ( -19.99999999999999600, 4.999999999999998200, 500.0000000000000000 ) ) ;
#161 = LINE ( 'NONE', #160, #61 ) ;
#162 = DIRECTION ( 'NONE',  ( -0.0000000000000000000, -0.0000000000000000000, -1.000000000000000000 ) ) ;
#163 = CARTESIAN_POINT ( 'NONE',  ( 20.00000000000000400, 4.999999999999998200, -500.0000000000000000 ) ) ;
#164 = LINE ( 'NONE', #159, #48 ) ;
#165 = CARTESIAN_POINT ( 'NONE',  ( 20.00000000000000400, 4.999999999999998200, 500.0000000000000000 ) ) ;
#166 = CARTESIAN_POINT ( 'NONE',  ( -19.99999999999999300, -5.000000000000001800, 500.0000000000000000 ) ) ;
#167 =( LENGTH_UNIT ( ) NAMED_UNIT ( * ) SI_UNIT ( .MILLI., .METRE. ) );
#168 = LINE ( 'NONE', #163, #50 ) ;
#169 = CARTESIAN_POINT ( 'NONE',  ( 20.00000000000000000, -5.000000000000001800, 500.0000000000000000 ) ) ;
#170 = CARTESIAN_POINT ( 'NONE',  ( -19.99999999999999600, 4.999999999999998200, 500.0000000000000000 ) ) ;
#171 = DIRECTION ( 'NONE',  ( 3.469446951953614200E-016, 1.000000000000000000, -0.0000000000000000000 ) ) ;
#172 =( NAMED_UNIT ( * ) PLANE_ANGLE_UNIT ( ) SI_UNIT ( $, .RADIAN. ) );
#173 = CARTESIAN_POINT ( 'NONE',  ( -19.99999999999999600, 4.999999999999998200, -500.0000000000000000 ) ) ;
#174 = CARTESIAN_POINT ( 'NONE',  ( -19.99999999999999300, -5.000000000000001800, -500.0000000000000000 ) ) ;
#175 = CARTESIAN_POINT ( 'NONE',  ( 20.00000000000000000, -5.000000000000001800, -500.0000000000000000 ) ) ;
#176 = CARTESIAN_POINT ( 'NONE',  ( 20.00000000000000400, 4.999999999999998200, -500.0000000000000000 ) ) ;
#177 = DIRECTION ( 'NONE',  ( -0.0000000000000000000, -0.0000000000000000000, -1.000000000000000000 ) ) ;
#178 = SHAPE_DEFINITION_REPRESENTATION ( #3, #41 ) ;
#179 = DATE_AND_TIME ( #77, #38 ) ;
#180 = APPROVAL_ROLE ( '' ) ;
#181 = APPROVAL_STATUS ( 'not_yet_approved' ) ;
#182 = PERSON_AND_ORGANIZATION ( #40, #66 ) ;
#183 = APPLICATION_PROTOCOL_DEFINITION ( 'international standard', 'config_control_design', 1994, #89 ) ;
#184 = DIRECTION ( 'NONE',  ( 1.000000000000000000, 0.0000000000000000000, 0.0000000000000000000 ) ) ;
#185 = DIRECTION ( 'NONE',  ( 0.0000000000000000000, 0.0000000000000000000, 1.000000000000000000 ) ) ;
#186 = APPROVAL_DATE_TIME ( #179, #31 ) ;
#187 = PERSON_AND_ORGANIZATION_ROLE ( 'design_owner' ) ;
#188 =( NAMED_UNIT ( * ) SI_UNIT ( $, .STERADIAN. ) SOLID_ANGLE_UNIT ( ) );
#189 = APPLICATION_PROTOCOL_DEFINITION ( 'international standard', 'config_control_design', 1994, #90 ) ;
#190 = CARTESIAN_POINT ( 'NONE',  ( 0.0000000000000000000, 0.0000000000000000000, 0.0000000000000000000 ) ) ;
#191 = CARTESIAN_POINT ( 'NONE',  ( -19.99999999999999300, -5.000000000000001800, -500.0000000000000000 ) ) ;
#192 = ORIENTED_EDGE ( 'NONE', *, *, #28, .T. ) ;
#193 = APPROVAL_DATE_TIME ( #194, #25 ) ;
#194 = DATE_AND_TIME ( #55, #14 ) ;
#195 = DIRECTION ( 'NONE',  ( 1.000000000000000000, 0.0000000000000000000, 0.0000000000000000000 ) ) ;
#196 = PLANE ( 'NONE',  #71 ) ;
#197 = CARTESIAN_POINT ( 'NONE',  ( 0.0000000000000000000, 0.0000000000000000000, 500.0000000000000000 ) ) ;
#198 = DIRECTION ( 'NONE',  ( -0.0000000000000000000, 0.0000000000000000000, 1.000000000000000000 ) ) ;
#199 = CARTESIAN_POINT ( 'NONE',  ( -19.99999999999999600, 4.999999999999998200, 500.0000000000000000 ) ) ;
#200 = CARTESIAN_POINT ( 'NONE',  ( 20.00000000000000400, 4.999999999999998200, 500.0000000000000000 ) ) ;
#201 = LINE ( 'NONE', #202, #65 ) ;
#202 = CARTESIAN_POINT ( 'NONE',  ( 20.00000000000000000, -5.000000000000001800, 500.0000000000000000 ) ) ;
#203 = DIRECTION ( 'NONE',  ( 3.469446951953614200E-016, 1.000000000000000000, -0.0000000000000000000 ) ) ;
#204 = DIRECTION ( 'NONE',  ( 1.000000000000000000, 0.0000000000000000000, 0.0000000000000000000 ) ) ;
#205 = LINE ( 'NONE', #200, #57 ) ;
#206 = ORIENTED_EDGE ( 'NONE', *, *, #32, .T. ) ;
#207 = ORIENTED_EDGE ( 'NONE', *, *, #30, .T. ) ;
#208 = APPROVAL_DATE_TIME ( #209, #5 ) ;
#209 = DATE_AND_TIME ( #84, #6 ) ;
#210 = APPROVAL_ROLE ( '' ) ;
#211 = APPROVAL_STATUS ( 'not_yet_approved' ) ;
#212 = PERSON_AND_ORGANIZATION ( #40, #66 ) ;
#213 = DATE_AND_TIME ( #79, #34 ) ;
#214 = PERSON_AND_ORGANIZATION_ROLE ( 'classification_officer' ) ;
#215 = PERSON_AND_ORGANIZATION ( #40, #66 ) ;
#216 = SECURITY_CLASSIFICATION_LEVEL ( 'unclassified' ) ;
#217 = DATE_TIME_ROLE ( 'creation_date' ) ;
#218 = DATE_AND_TIME ( #82, #26 ) ;
#219 = PERSON_AND_ORGANIZATION_ROLE ( 'creator' ) ;
#220 = PERSON_AND_ORGANIZATION ( #40, #66 ) ;
#221 = DATE_TIME_ROLE ( 'classification_date' ) ;
#222 = APPROVAL_ROLE ( '' ) ;
#223 = PERSON_AND_ORGANIZATION ( #40, #66 ) ;
#224 = APPROVAL_STATUS ( 'not_yet_approved' ) ;
#225 = PERSON_AND_ORGANIZATION_ROLE ( 'design_supplier' ) ;
#226 = PERSON_AND_ORGANIZATION ( #40, #66 ) ;
#227 = PERSON_AND_ORGANIZATION_ROLE ( 'creator' ) ;
#228 = PERSON_AND_ORGANIZATION ( #40, #66 ) ;
#229 = ORIENTED_EDGE ( 'NONE', *, *, #19, .F. ) ;
#230 = DIRECTION ( 'NONE',  ( -0.0000000000000000000, 0.0000000000000000000, 1.000000000000000000 ) ) ;
#231 = DIRECTION ( 'NONE',  ( 1.000000000000000000, 0.0000000000000000000, 0.0000000000000000000 ) ) ;
#232 = LINE ( 'NONE', #199, #56 ) ;
#233 = DIRECTION ( 'NONE',  ( -0.0000000000000000000, -0.0000000000000000000, -1.000000000000000000 ) ) ;
#234 = CARTESIAN_POINT ( 'NONE',  ( -19.99999999999999300, -5.000000000000001800, 500.0000000000000000 ) ) ;
#235 = ORIENTED_EDGE ( 'NONE', *, *, #23, .T. ) ;
#236 = DIRECTION ( 'NONE',  ( 1.000000000000000000, 0.0000000000000000000, 0.0000000000000000000 ) ) ;
#237 = CARTESIAN_POINT ( 'NONE',  ( 0.0000000000000000000, 0.0000000000000000000, -500.0000000000000000 ) ) ;
ENDSEC;
END-ISO-10303-21;
