ISO-10303-21;
HEADER;
FILE_DESCRIPTION (( 'STEP AP203' ),
    '1' );
FILE_NAME ('sone3D.STEP',
    '2015-08-11T10:22:41',
    ( '' ),
    ( '' ),
    'SwSTEP 2.0',
    'SolidWorks 2012',
    '' );
FILE_SCHEMA (( 'CONFIG_CONTROL_DESIGN' ));
ENDSEC;

DATA;
#1 =( GEOMETRIC_REPRESENTATION_CONTEXT ( 3 ) GLOBAL_UNCERTAINTY_ASSIGNED_CONTEXT ( ( #41 ) ) GLOBAL_UNIT_ASSIGNED_CONTEXT ( ( #200, #177, #211 ) ) REPRESENTATION_CONTEXT ( 'NONE', 'WORKASPACE' ) );
#2 = MANIFOLD_SOLID_BREP ( 'ÎÞ½ - µoµ1', #73 ) ;
#3 = ADVANCED_FACE ( 'NONE', ( #52 ), #132, .F. ) ;
#4 = LOCAL_TIME ( 19, 22, 41.00000000000000000, #46 ) ;
#5 = EDGE_CURVE ( 'NONE', #120, #118, #136, .T. ) ;
#6 = ADVANCED_FACE ( 'NONE', ( #61 ), #139, .F. ) ;
#7 = ADVANCED_FACE ( 'NONE', ( #87 ), #143, .T. ) ;
#8 = ADVANCED_FACE ( 'NONE', ( #44 ), #147, .F. ) ;
#9 = ADVANCED_FACE ( 'NONE', ( #72 ), #151, .F. ) ;
#10 = EDGE_CURVE ( 'NONE', #122, #121, #159, .T. ) ;
#11 = CC_DESIGN_PERSON_AND_ORGANIZATION_ASSIGNMENT ( #227, #228, ( #68 ) ) ;
#12 = EDGE_CURVE ( 'NONE', #117, #116, #97, .T. ) ;
#13 = EDGE_CURVE ( 'NONE', #115, #119, #160, .T. ) ;
#14 = EDGE_CURVE ( 'NONE', #115, #122, #152, .T. ) ;
#15 = EDGE_CURVE ( 'NONE', #118, #116, #165, .T. ) ;
#16 = PRODUCT_RELATED_PRODUCT_CATEGORY ( 'detail', '', ( #91 ) ) ;
#17 = CC_DESIGN_DATE_AND_TIME_ASSIGNMENT ( #233, #234, ( #84 ) ) ;
#18 = LOCAL_TIME ( 19, 22, 41.00000000000000000, #85 ) ;
#19 = CC_DESIGN_PERSON_AND_ORGANIZATION_ASSIGNMENT ( #237, #235, ( #84 ) ) ;
#20 = APPROVAL ( #231, 'UNSPECIFIED' ) ;
#21 = APPROVAL ( #212, 'UNSPECIFIED' ) ;
#22 = EDGE_CURVE ( 'NONE', #116, #122, #167, .T. ) ;
#23 = LOCAL_TIME ( 19, 22, 41.00000000000000000, #56 ) ;
#24 = EDGE_CURVE ( 'NONE', #121, #117, #176, .T. ) ;
#25 = EDGE_CURVE ( 'NONE', #119, #120, #170, .T. ) ;
#26 = CC_DESIGN_PERSON_AND_ORGANIZATION_ASSIGNMENT ( #202, #203, ( #91 ) ) ;
#27 = LOCAL_TIME ( 19, 22, 41.00000000000000000, #49 ) ;
#28 = PRODUCT_DEFINITION ( 'UNKNOWN', '', #68, #38 ) ;
#29 = EDGE_CURVE ( 'NONE', #119, #121, #197, .T. ) ;
#30 = EDGE_CURVE ( 'NONE', #118, #115, #181, .T. ) ;
#31 = EDGE_CURVE ( 'NONE', #120, #117, #184, .T. ) ;
#32 = APPROVAL ( #222, 'UNSPECIFIED' ) ;
#33 = CC_DESIGN_DATE_AND_TIME_ASSIGNMENT ( #223, #225, ( #28 ) ) ;
#34 = ADVANCED_FACE ( 'NONE', ( #76 ), #155, .F. ) ;
#35 = CC_DESIGN_PERSON_AND_ORGANIZATION_ASSIGNMENT ( #216, #215, ( #68 ) ) ;
#36 = CC_DESIGN_PERSON_AND_ORGANIZATION_ASSIGNMENT ( #198, #226, ( #28 ) ) ;
#37 = LOCAL_TIME ( 19, 22, 41.00000000000000000, #62 ) ;
#38 = DESIGN_CONTEXT ( 'detailed design', #90, 'design' ) ;
#39 = PRODUCT_DEFINITION_SHAPE ( 'NONE', 'NONE',  #28 ) ;
#40 = PERSON ( 'UNSPECIFIED', 'UNSPECIFIED', 'UNSPECIFIED', ('UNSPECIFIED'), ('UNSPECIFIED'), ('UNSPECIFIED') ) ;
#41 = UNCERTAINTY_MEASURE_WITH_UNIT (LENGTH_MEASURE( 1.000000000000000100E-005 ), #200, 'distance_accuracy_value', 'NONE');
#42 = ADVANCED_BREP_SHAPE_REPRESENTATION ( 'sone3D', ( #2, #47 ), #1 ) ;
#43 = AXIS2_PLACEMENT_3D ( 'NONE', #148, #149, #150 ) ;
#44 = FACE_OUTER_BOUND ( 'NONE', #127, .T. ) ;
#45 = CC_DESIGN_APPROVAL ( #32, ( #68 ) ) ;
#46 = COORDINATED_UNIVERSAL_TIME_OFFSET ( 9, 0, .AHEAD. ) ;
#47 = AXIS2_PLACEMENT_3D ( 'NONE', #207, #208, #209 ) ;
#48 = AXIS2_PLACEMENT_3D ( 'NONE', #140, #141, #142 ) ;
#49 = COORDINATED_UNIVERSAL_TIME_OFFSET ( 9, 0, .AHEAD. ) ;
#50 = CC_DESIGN_APPROVAL ( #20, ( #84 ) ) ;
#51 = CALENDAR_DATE ( 2015, 11, 8 ) ;
#52 = FACE_OUTER_BOUND ( 'NONE', #126, .T. ) ;
#53 = VECTOR ( 'NONE', #166, 1000.000000000000000 ) ;
#54 = CALENDAR_DATE ( 2015, 11, 8 ) ;
#55 = AXIS2_PLACEMENT_3D ( 'NONE', #144, #145, #146 ) ;
#56 = COORDINATED_UNIVERSAL_TIME_OFFSET ( 9, 0, .AHEAD. ) ;
#57 = VECTOR ( 'NONE', #183, 1000.000000000000000 ) ;
#58 = AXIS2_PLACEMENT_3D ( 'NONE', #133, #134, #135 ) ;
#59 = APPROVAL_PERSON_ORGANIZATION ( #205, #21, #213 ) ;
#60 = CALENDAR_DATE ( 2015, 11, 8 ) ;
#61 = FACE_OUTER_BOUND ( 'NONE', #129, .T. ) ;
#62 = COORDINATED_UNIVERSAL_TIME_OFFSET ( 9, 0, .AHEAD. ) ;
#63 = VECTOR ( 'NONE', #174, 1000.000000000000000 ) ;
#64 = APPROVAL_PERSON_ORGANIZATION ( #214, #20, #232 ) ;
#65 = VECTOR ( 'NONE', #168, 1000.000000000000000 ) ;
#66 = VECTOR ( 'NONE', #138, 1000.000000000000000 ) ;
#67 = CALENDAR_DATE ( 2015, 11, 8 ) ;
#68 = PRODUCT_DEFINITION_FORMATION_WITH_SPECIFIED_SOURCE ( 'ANY', '', #91, .NOT_KNOWN. ) ;
#69 = VECTOR ( 'NONE', #178, 1000.000000000000000 ) ;
#70 = CALENDAR_DATE ( 2015, 11, 8 ) ;
#71 = VECTOR ( 'NONE', #154, 1000.000000000000000 ) ;
#72 = FACE_OUTER_BOUND ( 'NONE', #125, .T. ) ;
#73 = CLOSED_SHELL ( 'NONE', ( #3, #34, #9, #8, #7, #6 ) ) ;
#74 = APPROVAL_PERSON_ORGANIZATION ( #221, #32, #220 ) ;
#75 = CC_DESIGN_APPROVAL ( #21, ( #28 ) ) ;
#76 = FACE_OUTER_BOUND ( 'NONE', #124, .T. ) ;
#77 = CC_DESIGN_SECURITY_CLASSIFICATION ( #84, ( #68 ) ) ;
#78 = AXIS2_PLACEMENT_3D ( 'NONE', #162, #157, #158 ) ;
#79 = VECTOR ( 'NONE', #98, 1000.000000000000000 ) ;
#80 = VECTOR ( 'NONE', #186, 1000.000000000000000 ) ;
#81 = VECTOR ( 'NONE', #180, 1000.000000000000000 ) ;
#82 = ORGANIZATION ( 'UNSPECIFIED', 'UNSPECIFIED', '' ) ;
#83 = AXIS2_PLACEMENT_3D ( 'NONE', #187, #188, #189 ) ;
#84 = SECURITY_CLASSIFICATION ( '', '', #236 ) ;
#85 = COORDINATED_UNIVERSAL_TIME_OFFSET ( 9, 0, .AHEAD. ) ;
#86 = VECTOR ( 'NONE', #163, 1000.000000000000000 ) ;
#87 = FACE_OUTER_BOUND ( 'NONE', #128, .T. ) ;
#88 = VECTOR ( 'NONE', #173, 1000.000000000000000 ) ;
#89 = APPLICATION_CONTEXT ( 'configuration controlled 3d designs of mechanical parts and assemblies' ) ;
#90 = APPLICATION_CONTEXT ( 'configuration controlled 3d designs of mechanical parts and assemblies' ) ;
#91 = PRODUCT ( 'sone3D', 'sone3D', '', ( #206 ) ) ;
#92 = ORIENTED_EDGE ( 'NONE', *, *, #30, .F. ) ;
#93 = ORIENTED_EDGE ( 'NONE', *, *, #24, .T. ) ;
#94 = ORIENTED_EDGE ( 'NONE', *, *, #13, .T. ) ;
#95 = ORIENTED_EDGE ( 'NONE', *, *, #25, .T. ) ;
#96 = ORIENTED_EDGE ( 'NONE', *, *, #5, .T. ) ;
#97 = LINE ( 'NONE', #156, #86 ) ;
#98 = DIRECTION ( 'NONE',  ( 3.469446951953614200E-016, -1.000000000000000000, 0.0000000000000000000 ) ) ;
#99 = ORIENTED_EDGE ( 'NONE', *, *, #24, .F. ) ;
#100 = ORIENTED_EDGE ( 'NONE', *, *, #10, .F. ) ;
#101 = ORIENTED_EDGE ( 'NONE', *, *, #22, .F. ) ;
#102 = ORIENTED_EDGE ( 'NONE', *, *, #12, .F. ) ;
#103 = ORIENTED_EDGE ( 'NONE', *, *, #15, .F. ) ;
#104 = ORIENTED_EDGE ( 'NONE', *, *, #31, .T. ) ;
#105 = ORIENTED_EDGE ( 'NONE', *, *, #10, .T. ) ;
#106 = ORIENTED_EDGE ( 'NONE', *, *, #14, .F. ) ;
#107 = ORIENTED_EDGE ( 'NONE', *, *, #15, .T. ) ;
#108 = ORIENTED_EDGE ( 'NONE', *, *, #29, .T. ) ;
#109 = ORIENTED_EDGE ( 'NONE', *, *, #12, .T. ) ;
#110 = ORIENTED_EDGE ( 'NONE', *, *, #5, .F. ) ;
#111 = ORIENTED_EDGE ( 'NONE', *, *, #30, .T. ) ;
#112 = ORIENTED_EDGE ( 'NONE', *, *, #13, .F. ) ;
#113 = ORIENTED_EDGE ( 'NONE', *, *, #29, .F. ) ;
#114 = ORIENTED_EDGE ( 'NONE', *, *, #14, .T. ) ;
#115 = VERTEX_POINT ( 'NONE', #190 ) ;
#116 = VERTEX_POINT ( 'NONE', #193 ) ;
#117 = VERTEX_POINT ( 'NONE', #191 ) ;
#118 = VERTEX_POINT ( 'NONE', #192 ) ;
#119 = VERTEX_POINT ( 'NONE', #194 ) ;
#120 = VERTEX_POINT ( 'NONE', #195 ) ;
#121 = VERTEX_POINT ( 'NONE', #196 ) ;
#122 = VERTEX_POINT ( 'NONE', #199 ) ;
#123 = ORIENTED_EDGE ( 'NONE', *, *, #22, .T. ) ;
#124 = EDGE_LOOP ( 'NONE', ( #93, #130, #131, #108 ) ) ;
#125 = EDGE_LOOP ( 'NONE', ( #109, #103, #110, #104 ) ) ;
#126 = EDGE_LOOP ( 'NONE', ( #105, #113, #112, #114 ) ) ;
#127 = EDGE_LOOP ( 'NONE', ( #123, #106, #92, #107 ) ) ;
#128 = EDGE_LOOP ( 'NONE', ( #94, #95, #96, #111 ) ) ;
#129 = EDGE_LOOP ( 'NONE', ( #100, #101, #102, #99 ) ) ;
#130 = ORIENTED_EDGE ( 'NONE', *, *, #31, .F. ) ;
#131 = ORIENTED_EDGE ( 'NONE', *, *, #25, .F. ) ;
#132 = PLANE ( 'NONE',  #58 ) ;
#133 = CARTESIAN_POINT ( 'NONE',  ( -17.50000000000000400, 4.999999999999999100, 500.0000000000000000 ) ) ;
#134 = DIRECTION ( 'NONE',  ( 1.000000000000000000, 3.469446951953614200E-016, -0.0000000000000000000 ) ) ;
#135 = DIRECTION ( 'NONE',  ( -3.469446951953614200E-016, 1.000000000000000000, 0.0000000000000000000 ) ) ;
#136 = LINE ( 'NONE', #137, #66 ) ;
#137 = CARTESIAN_POINT ( 'NONE',  ( 17.50000000000000000, 4.999999999999999100, 500.0000000000000000 ) ) ;
#138 = DIRECTION ( 'NONE',  ( 3.469446951953614200E-016, 1.000000000000000000, -0.0000000000000000000 ) ) ;
#139 = PLANE ( 'NONE',  #48 ) ;
#140 = CARTESIAN_POINT ( 'NONE',  ( 0.0000000000000000000, 0.0000000000000000000, -500.0000000000000000 ) ) ;
#141 = DIRECTION ( 'NONE',  ( -0.0000000000000000000, 0.0000000000000000000, 1.000000000000000000 ) ) ;
#142 = DIRECTION ( 'NONE',  ( 1.000000000000000000, 0.0000000000000000000, 0.0000000000000000000 ) ) ;
#143 = PLANE ( 'NONE',  #55 ) ;
#144 = CARTESIAN_POINT ( 'NONE',  ( 0.0000000000000000000, 0.0000000000000000000, 500.0000000000000000 ) ) ;
#145 = DIRECTION ( 'NONE',  ( -0.0000000000000000000, 0.0000000000000000000, 1.000000000000000000 ) ) ;
#146 = DIRECTION ( 'NONE',  ( 1.000000000000000000, 0.0000000000000000000, 0.0000000000000000000 ) ) ;
#147 = PLANE ( 'NONE',  #43 ) ;
#148 = CARTESIAN_POINT ( 'NONE',  ( -17.50000000000000400, 4.999999999999999100, 500.0000000000000000 ) ) ;
#149 = DIRECTION ( 'NONE',  ( 0.0000000000000000000, -1.000000000000000000, 0.0000000000000000000 ) ) ;
#150 = DIRECTION ( 'NONE',  ( 0.0000000000000000000, -0.0000000000000000000, -1.000000000000000000 ) ) ;
#151 = PLANE ( 'NONE',  #78 ) ;
#152 = LINE ( 'NONE', #153, #88 ) ;
#153 = CARTESIAN_POINT ( 'NONE',  ( -17.50000000000000400, 4.999999999999999100, 500.0000000000000000 ) ) ;
#154 = DIRECTION ( 'NONE',  ( 3.469446951953614200E-016, -1.000000000000000000, 0.0000000000000000000 ) ) ;
#155 = PLANE ( 'NONE',  #83 ) ;
#156 = CARTESIAN_POINT ( 'NONE',  ( 17.50000000000000000, 4.999999999999999100, -500.0000000000000000 ) ) ;
#157 = DIRECTION ( 'NONE',  ( -1.000000000000000000, 3.469446951953614200E-016, 0.0000000000000000000 ) ) ;
#158 = DIRECTION ( 'NONE',  ( -3.469446951953614200E-016, -1.000000000000000000, 0.0000000000000000000 ) ) ;
#159 = LINE ( 'NONE', #172, #79 ) ;
#160 = LINE ( 'NONE', #161, #71 ) ;
#161 = CARTESIAN_POINT ( 'NONE',  ( -17.50000000000000400, 4.999999999999999100, 500.0000000000000000 ) ) ;
#162 = CARTESIAN_POINT ( 'NONE',  ( 17.50000000000000000, 4.999999999999999100, 500.0000000000000000 ) ) ;
#163 = DIRECTION ( 'NONE',  ( 3.469446951953614200E-016, 1.000000000000000000, -0.0000000000000000000 ) ) ;
#164 = CARTESIAN_POINT ( 'NONE',  ( 17.50000000000000000, 4.999999999999999100, 500.0000000000000000 ) ) ;
#165 = LINE ( 'NONE', #164, #65 ) ;
#166 = DIRECTION ( 'NONE',  ( -1.000000000000000000, -0.0000000000000000000, -0.0000000000000000000 ) ) ;
#167 = LINE ( 'NONE', #169, #53 ) ;
#168 = DIRECTION ( 'NONE',  ( -0.0000000000000000000, -0.0000000000000000000, -1.000000000000000000 ) ) ;
#169 = CARTESIAN_POINT ( 'NONE',  ( -17.50000000000000400, 4.999999999999999100, -500.0000000000000000 ) ) ;
#170 = LINE ( 'NONE', #175, #69 ) ;
#171 = CARTESIAN_POINT ( 'NONE',  ( -17.50000000000000000, -5.000000000000000900, -500.0000000000000000 ) ) ;
#172 = CARTESIAN_POINT ( 'NONE',  ( -17.50000000000000400, 4.999999999999999100, -500.0000000000000000 ) ) ;
#173 = DIRECTION ( 'NONE',  ( -0.0000000000000000000, -0.0000000000000000000, -1.000000000000000000 ) ) ;
#174 = DIRECTION ( 'NONE',  ( 1.000000000000000000, 0.0000000000000000000, 0.0000000000000000000 ) ) ;
#175 = CARTESIAN_POINT ( 'NONE',  ( -17.50000000000000000, -5.000000000000000900, 500.0000000000000000 ) ) ;
#176 = LINE ( 'NONE', #171, #63 ) ;
#177 =( NAMED_UNIT ( * ) PLANE_ANGLE_UNIT ( ) SI_UNIT ( $, .RADIAN. ) );
#178 = DIRECTION ( 'NONE',  ( 1.000000000000000000, 0.0000000000000000000, 0.0000000000000000000 ) ) ;
#179 = CARTESIAN_POINT ( 'NONE',  ( -17.50000000000000000, -5.000000000000000900, 500.0000000000000000 ) ) ;
#180 = DIRECTION ( 'NONE',  ( -0.0000000000000000000, -0.0000000000000000000, -1.000000000000000000 ) ) ;
#181 = LINE ( 'NONE', #182, #57 ) ;
#182 = CARTESIAN_POINT ( 'NONE',  ( -17.50000000000000400, 4.999999999999999100, 500.0000000000000000 ) ) ;
#183 = DIRECTION ( 'NONE',  ( -1.000000000000000000, -0.0000000000000000000, -0.0000000000000000000 ) ) ;
#184 = LINE ( 'NONE', #185, #80 ) ;
#185 = CARTESIAN_POINT ( 'NONE',  ( 17.49999999999999600, -5.000000000000000900, 500.0000000000000000 ) ) ;
#186 = DIRECTION ( 'NONE',  ( -0.0000000000000000000, -0.0000000000000000000, -1.000000000000000000 ) ) ;
#187 = CARTESIAN_POINT ( 'NONE',  ( -17.50000000000000000, -5.000000000000000900, 500.0000000000000000 ) ) ;
#188 = DIRECTION ( 'NONE',  ( 0.0000000000000000000, 1.000000000000000000, 0.0000000000000000000 ) ) ;
#189 = DIRECTION ( 'NONE',  ( 0.0000000000000000000, -0.0000000000000000000, 1.000000000000000000 ) ) ;
#190 = CARTESIAN_POINT ( 'NONE',  ( -17.50000000000000400, 4.999999999999999100, 500.0000000000000000 ) ) ;
#191 = CARTESIAN_POINT ( 'NONE',  ( 17.49999999999999600, -5.000000000000000900, -500.0000000000000000 ) ) ;
#192 = CARTESIAN_POINT ( 'NONE',  ( 17.50000000000000000, 4.999999999999999100, 500.0000000000000000 ) ) ;
#193 = CARTESIAN_POINT ( 'NONE',  ( 17.50000000000000000, 4.999999999999999100, -500.0000000000000000 ) ) ;
#194 = CARTESIAN_POINT ( 'NONE',  ( -17.50000000000000000, -5.000000000000000900, 500.0000000000000000 ) ) ;
#195 = CARTESIAN_POINT ( 'NONE',  ( 17.49999999999999600, -5.000000000000000900, 500.0000000000000000 ) ) ;
#196 = CARTESIAN_POINT ( 'NONE',  ( -17.50000000000000000, -5.000000000000000900, -500.0000000000000000 ) ) ;
#197 = LINE ( 'NONE', #179, #81 ) ;
#198 = PERSON_AND_ORGANIZATION ( #40, #82 ) ;
#199 = CARTESIAN_POINT ( 'NONE',  ( -17.50000000000000400, 4.999999999999999100, -500.0000000000000000 ) ) ;
#200 =( LENGTH_UNIT ( ) NAMED_UNIT ( * ) SI_UNIT ( .MILLI., .METRE. ) );
#201 = APPLICATION_PROTOCOL_DEFINITION ( 'international standard', 'config_control_design', 1994, #89 ) ;
#202 = PERSON_AND_ORGANIZATION ( #40, #82 ) ;
#203 = PERSON_AND_ORGANIZATION_ROLE ( 'design_owner' ) ;
#204 = APPLICATION_PROTOCOL_DEFINITION ( 'international standard', 'config_control_design', 1994, #90 ) ;
#205 = PERSON_AND_ORGANIZATION ( #40, #82 ) ;
#206 = MECHANICAL_CONTEXT ( 'NONE', #89, 'mechanical' ) ;
#207 = CARTESIAN_POINT ( 'NONE',  ( 0.0000000000000000000, 0.0000000000000000000, 0.0000000000000000000 ) ) ;
#208 = DIRECTION ( 'NONE',  ( 0.0000000000000000000, 0.0000000000000000000, 1.000000000000000000 ) ) ;
#209 = DIRECTION ( 'NONE',  ( 1.000000000000000000, 0.0000000000000000000, 0.0000000000000000000 ) ) ;
#210 = SHAPE_DEFINITION_REPRESENTATION ( #39, #42 ) ;
#211 =( NAMED_UNIT ( * ) SI_UNIT ( $, .STERADIAN. ) SOLID_ANGLE_UNIT ( ) );
#212 = APPROVAL_STATUS ( 'not_yet_approved' ) ;
#213 = APPROVAL_ROLE ( '' ) ;
#214 = PERSON_AND_ORGANIZATION ( #40, #82 ) ;
#215 = PERSON_AND_ORGANIZATION_ROLE ( 'creator' ) ;
#216 = PERSON_AND_ORGANIZATION ( #40, #82 ) ;
#217 = APPROVAL_DATE_TIME ( #218, #32 ) ;
#218 = DATE_AND_TIME ( #54, #4 ) ;
#219 = APPROVAL_DATE_TIME ( #224, #21 ) ;
#220 = APPROVAL_ROLE ( '' ) ;
#221 = PERSON_AND_ORGANIZATION ( #40, #82 ) ;
#222 = APPROVAL_STATUS ( 'not_yet_approved' ) ;
#223 = DATE_AND_TIME ( #67, #27 ) ;
#224 = DATE_AND_TIME ( #51, #23 ) ;
#225 = DATE_TIME_ROLE ( 'creation_date' ) ;
#226 = PERSON_AND_ORGANIZATION_ROLE ( 'creator' ) ;
#227 = PERSON_AND_ORGANIZATION ( #40, #82 ) ;
#228 = PERSON_AND_ORGANIZATION_ROLE ( 'design_supplier' ) ;
#229 = APPROVAL_DATE_TIME ( #230, #20 ) ;
#230 = DATE_AND_TIME ( #60, #37 ) ;
#231 = APPROVAL_STATUS ( 'not_yet_approved' ) ;
#232 = APPROVAL_ROLE ( '' ) ;
#233 = DATE_AND_TIME ( #70, #18 ) ;
#234 = DATE_TIME_ROLE ( 'classification_date' ) ;
#235 = PERSON_AND_ORGANIZATION_ROLE ( 'classification_officer' ) ;
#236 = SECURITY_CLASSIFICATION_LEVEL ( 'unclassified' ) ;
#237 = PERSON_AND_ORGANIZATION ( #40, #82 ) ;
ENDSEC;
END-ISO-10303-21;
