ISO-10303-21;
HEADER;
FILE_DESCRIPTION (( 'STEP AP203' ),
    '1' );
FILE_NAME ('sone3D.STEP',
    '2015-08-11T10:22:23',
    ( '' ),
    ( '' ),
    'SwSTEP 2.0',
    'SolidWorks 2012',
    '' );
FILE_SCHEMA (( 'CONFIG_CONTROL_DESIGN' ));
ENDSEC;

DATA;
#1 = SHAPE_DEFINITION_REPRESENTATION ( #29, #193 ) ;
#2 = LOCAL_TIME ( 19, 22, 23.00000000000000000, #8 ) ;
#3 = VECTOR ( 'NONE', #168, 1000.000000000000000 ) ;
#4 = CALENDAR_DATE ( 2015, 11, 8 ) ;
#5 = CC_DESIGN_APPROVAL ( #214, ( #18 ) ) ;
#6 = CC_DESIGN_SECURITY_CLASSIFICATION ( #9, ( #18 ) ) ;
#7 = APPROVAL_PERSON_ORGANIZATION ( #61, #156, #63 ) ;
#8 = COORDINATED_UNIVERSAL_TIME_OFFSET ( 9, 0, .AHEAD. ) ;
#9 = SECURITY_CLASSIFICATION ( '', '', #56 ) ;
#10 = COORDINATED_UNIVERSAL_TIME_OFFSET ( 9, 0, .AHEAD. ) ;
#11 = CALENDAR_DATE ( 2015, 11, 8 ) ;
#12 = CALENDAR_DATE ( 2015, 11, 8 ) ;
#13 = CALENDAR_DATE ( 2015, 11, 8 ) ;
#14 = ORGANIZATION ( 'UNSPECIFIED', 'UNSPECIFIED', '' ) ;
#15 = FACE_OUTER_BOUND ( 'NONE', #81, .T. ) ;
#16 = APPROVAL_PERSON_ORGANIZATION ( #38, #209, #40 ) ;
#17 = COORDINATED_UNIVERSAL_TIME_OFFSET ( 9, 0, .AHEAD. ) ;
#18 = PRODUCT_DEFINITION_FORMATION_WITH_SPECIFIED_SOURCE ( 'ANY', '', #158, .NOT_KNOWN. ) ;
#19 = APPROVAL_PERSON_ORGANIZATION ( #47, #214, #49 ) ;
#20 = AXIS2_PLACEMENT_3D ( 'NONE', #145, #196, #237 ) ;
#21 = COORDINATED_UNIVERSAL_TIME_OFFSET ( 9, 0, .AHEAD. ) ;
#22 = COORDINATED_UNIVERSAL_TIME_OFFSET ( 9, 0, .AHEAD. ) ;
#23 = VECTOR ( 'NONE', #182, 1000.000000000000000 ) ;
#24 = CC_DESIGN_APPROVAL ( #156, ( #9 ) ) ;
#25 = CC_DESIGN_APPROVAL ( #209, ( #207 ) ) ;
#26 = CALENDAR_DATE ( 2015, 11, 8 ) ;
#27 = MANIFOLD_SOLID_BREP ( 'ÎÞ½ - µoµ1', #227 ) ;
#28 = DESIGN_CONTEXT ( 'detailed design', #198, 'design' ) ;
#29 = PRODUCT_DEFINITION_SHAPE ( 'NONE', 'NONE',  #207 ) ;
#30 = LOCAL_TIME ( 19, 22, 23.00000000000000000, #21 ) ;
#31 = CC_DESIGN_DATE_AND_TIME_ASSIGNMENT ( #59, #60, ( #9 ) ) ;
#32 = CC_DESIGN_PERSON_AND_ORGANIZATION_ASSIGNMENT ( #57, #58, ( #9 ) ) ;
#33 = APPLICATION_PROTOCOL_DEFINITION ( 'international standard', 'config_control_design', 1994, #197 ) ;
#34 = MECHANICAL_CONTEXT ( 'NONE', #197, 'mechanical' ) ;
#35 = PERSON_AND_ORGANIZATION ( #194, #14 ) ;
#36 = PERSON_AND_ORGANIZATION_ROLE ( 'design_owner' ) ;
#37 = APPLICATION_PROTOCOL_DEFINITION ( 'international standard', 'config_control_design', 1994, #198 ) ;
#38 = PERSON_AND_ORGANIZATION ( #194, #14 ) ;
#39 = APPROVAL_STATUS ( 'not_yet_approved' ) ;
#40 = APPROVAL_ROLE ( '' ) ;
#41 = DATE_AND_TIME ( #11, #210 ) ;
#42 = APPROVAL_DATE_TIME ( #41, #209 ) ;
#43 = PERSON_AND_ORGANIZATION ( #194, #14 ) ;
#44 = PERSON_AND_ORGANIZATION_ROLE ( 'creator' ) ;
#45 = DATE_AND_TIME ( #26, #212 ) ;
#46 = DATE_TIME_ROLE ( 'creation_date' ) ;
#47 = PERSON_AND_ORGANIZATION ( #194, #14 ) ;
#48 = APPROVAL_STATUS ( 'not_yet_approved' ) ;
#49 = APPROVAL_ROLE ( '' ) ;
#50 = DATE_AND_TIME ( #4, #160 ) ;
#51 = APPROVAL_DATE_TIME ( #50, #214 ) ;
#52 = PERSON_AND_ORGANIZATION ( #194, #14 ) ;
#53 = PERSON_AND_ORGANIZATION_ROLE ( 'creator' ) ;
#54 = PERSON_AND_ORGANIZATION ( #194, #14 ) ;
#55 = PERSON_AND_ORGANIZATION_ROLE ( 'design_supplier' ) ;
#56 = SECURITY_CLASSIFICATION_LEVEL ( 'unclassified' ) ;
#57 = PERSON_AND_ORGANIZATION ( #194, #14 ) ;
#58 = PERSON_AND_ORGANIZATION_ROLE ( 'classification_officer' ) ;
#59 = DATE_AND_TIME ( #13, #30 ) ;
#60 = DATE_TIME_ROLE ( 'classification_date' ) ;
#61 = PERSON_AND_ORGANIZATION ( #194, #14 ) ;
#62 = APPROVAL_STATUS ( 'not_yet_approved' ) ;
#63 = APPROVAL_ROLE ( '' ) ;
#64 = DATE_AND_TIME ( #12, #2 ) ;
#65 = APPROVAL_DATE_TIME ( #64, #156 ) ;
#66 = VERTEX_POINT ( 'NONE', #105 ) ;
#67 = VERTEX_POINT ( 'NONE', #104 ) ;
#68 = VERTEX_POINT ( 'NONE', #106 ) ;
#69 = VERTEX_POINT ( 'NONE', #107 ) ;
#70 = VERTEX_POINT ( 'NONE', #108 ) ;
#71 = VERTEX_POINT ( 'NONE', #109 ) ;
#72 = VERTEX_POINT ( 'NONE', #110 ) ;
#73 = VERTEX_POINT ( 'NONE', #111 ) ;
#74 = ORIENTED_EDGE ( 'NONE', *, *, #201, .T. ) ;
#75 = ORIENTED_EDGE ( 'NONE', *, *, #200, .T. ) ;
#76 = ORIENTED_EDGE ( 'NONE', *, *, #151, .F. ) ;
#77 = ORIENTED_EDGE ( 'NONE', *, *, #153, .F. ) ;
#78 = ORIENTED_EDGE ( 'NONE', *, *, #199, .F. ) ;
#79 = ORIENTED_EDGE ( 'NONE', *, *, #203, .F. ) ;
#80 = EDGE_LOOP ( 'NONE', ( #99, #97, #98, #96 ) ) ;
#81 = EDGE_LOOP ( 'NONE', ( #75, #78, #79, #74 ) ) ;
#82 = EDGE_LOOP ( 'NONE', ( #103, #101, #102, #100 ) ) ;
#83 = EDGE_LOOP ( 'NONE', ( #94, #93, #95, #91 ) ) ;
#84 = EDGE_LOOP ( 'NONE', ( #90, #89, #88, #92 ) ) ;
#85 = EDGE_LOOP ( 'NONE', ( #86, #77, #76, #87 ) ) ;
#86 = ORIENTED_EDGE ( 'NONE', *, *, #200, .F. ) ;
#87 = ORIENTED_EDGE ( 'NONE', *, *, #157, .F. ) ;
#88 = ORIENTED_EDGE ( 'NONE', *, *, #147, .T. ) ;
#89 = ORIENTED_EDGE ( 'NONE', *, *, #154, .T. ) ;
#90 = ORIENTED_EDGE ( 'NONE', *, *, #203, .T. ) ;
#91 = ORIENTED_EDGE ( 'NONE', *, *, #155, .T. ) ;
#92 = ORIENTED_EDGE ( 'NONE', *, *, #202, .T. ) ;
#93 = ORIENTED_EDGE ( 'NONE', *, *, #201, .F. ) ;
#94 = ORIENTED_EDGE ( 'NONE', *, *, #153, .T. ) ;
#95 = ORIENTED_EDGE ( 'NONE', *, *, #202, .F. ) ;
#96 = ORIENTED_EDGE ( 'NONE', *, *, #205, .T. ) ;
#97 = ORIENTED_EDGE ( 'NONE', *, *, #155, .F. ) ;
#98 = ORIENTED_EDGE ( 'NONE', *, *, #147, .F. ) ;
#99 = ORIENTED_EDGE ( 'NONE', *, *, #151, .T. ) ;
#100 = ORIENTED_EDGE ( 'NONE', *, *, #199, .T. ) ;
#101 = ORIENTED_EDGE ( 'NONE', *, *, #205, .F. ) ;
#102 = ORIENTED_EDGE ( 'NONE', *, *, #154, .F. ) ;
#103 = ORIENTED_EDGE ( 'NONE', *, *, #157, .T. ) ;
#104 = CARTESIAN_POINT ( 'NONE',  ( -15.00000000000000000, -5.000000000000000900, -500.0000000000000000 ) ) ;
#105 = CARTESIAN_POINT ( 'NONE',  ( 15.00000000000000000, -5.000000000000000900, 500.0000000000000000 ) ) ;
#106 = CARTESIAN_POINT ( 'NONE',  ( 14.99999999999999800, 4.999999999999999100, -500.0000000000000000 ) ) ;
#107 = CARTESIAN_POINT ( 'NONE',  ( 15.00000000000000000, -5.000000000000000900, -500.0000000000000000 ) ) ;
#108 = CARTESIAN_POINT ( 'NONE',  ( -15.00000000000000200, 4.999999999999999100, 500.0000000000000000 ) ) ;
#109 = CARTESIAN_POINT ( 'NONE',  ( -15.00000000000000000, -5.000000000000000900, 500.0000000000000000 ) ) ;
#110 = CARTESIAN_POINT ( 'NONE',  ( -15.00000000000000200, 4.999999999999999100, -500.0000000000000000 ) ) ;
#111 = CARTESIAN_POINT ( 'NONE',  ( 14.99999999999999800, 4.999999999999999100, 500.0000000000000000 ) ) ;
#112 = LINE ( 'NONE', #113, #219 ) ;
#113 = CARTESIAN_POINT ( 'NONE',  ( 14.99999999999999800, 4.999999999999999100, 500.0000000000000000 ) ) ;
#114 = DIRECTION ( 'NONE',  ( -1.734723475976807100E-016, 1.000000000000000000, -0.0000000000000000000 ) ) ;
#115 = PLANE ( 'NONE',  #231 ) ;
#116 = CARTESIAN_POINT ( 'NONE',  ( 0.0000000000000000000, 0.0000000000000000000, -500.0000000000000000 ) ) ;
#117 = DIRECTION ( 'NONE',  ( -0.0000000000000000000, 0.0000000000000000000, 1.000000000000000000 ) ) ;
#118 = DIRECTION ( 'NONE',  ( 1.000000000000000000, 0.0000000000000000000, 0.0000000000000000000 ) ) ;
#119 = PLANE ( 'NONE',  #233 ) ;
#120 = CARTESIAN_POINT ( 'NONE',  ( 0.0000000000000000000, 0.0000000000000000000, 500.0000000000000000 ) ) ;
#121 = DIRECTION ( 'NONE',  ( -0.0000000000000000000, 0.0000000000000000000, 1.000000000000000000 ) ) ;
#122 = DIRECTION ( 'NONE',  ( 1.000000000000000000, 0.0000000000000000000, 0.0000000000000000000 ) ) ;
#123 = PLANE ( 'NONE',  #230 ) ;
#124 = CARTESIAN_POINT ( 'NONE',  ( -15.00000000000000200, 4.999999999999999100, 500.0000000000000000 ) ) ;
#125 = DIRECTION ( 'NONE',  ( 0.0000000000000000000, -1.000000000000000000, 0.0000000000000000000 ) ) ;
#126 = DIRECTION ( 'NONE',  ( 0.0000000000000000000, -0.0000000000000000000, -1.000000000000000000 ) ) ;
#127 = LINE ( 'NONE', #128, #222 ) ;
#128 = CARTESIAN_POINT ( 'NONE',  ( 14.99999999999999800, 4.999999999999999100, -500.0000000000000000 ) ) ;
#129 = DIRECTION ( 'NONE',  ( -1.734723475976807100E-016, 1.000000000000000000, -0.0000000000000000000 ) ) ;
#130 = PLANE ( 'NONE',  #215 ) ;
#131 = CARTESIAN_POINT ( 'NONE',  ( 14.99999999999999800, 4.999999999999999100, 500.0000000000000000 ) ) ;
#132 = DIRECTION ( 'NONE',  ( -1.000000000000000000, -1.734723475976807100E-016, 0.0000000000000000000 ) ) ;
#133 = DIRECTION ( 'NONE',  ( 1.734723475976807100E-016, -1.000000000000000000, 0.0000000000000000000 ) ) ;
#134 = LINE ( 'NONE', #135, #232 ) ;
#135 = CARTESIAN_POINT ( 'NONE',  ( -15.00000000000000200, 4.999999999999999100, -500.0000000000000000 ) ) ;
#136 = DIRECTION ( 'NONE',  ( -1.000000000000000000, -0.0000000000000000000, -0.0000000000000000000 ) ) ;
#137 = PLANE ( 'NONE',  #229 ) ;
#138 = LINE ( 'NONE', #139, #225 ) ;
#139 = CARTESIAN_POINT ( 'NONE',  ( -15.00000000000000000, -5.000000000000000900, 500.0000000000000000 ) ) ;
#140 = DIRECTION ( 'NONE',  ( 1.000000000000000000, 0.0000000000000000000, 0.0000000000000000000 ) ) ;
#141 = LINE ( 'NONE', #142, #235 ) ;
#142 = CARTESIAN_POINT ( 'NONE',  ( 14.99999999999999800, 4.999999999999999100, 500.0000000000000000 ) ) ;
#143 = DIRECTION ( 'NONE',  ( -0.0000000000000000000, -0.0000000000000000000, -1.000000000000000000 ) ) ;
#144 = LINE ( 'NONE', #169, #217 ) ;
#145 = CARTESIAN_POINT ( 'NONE',  ( 0.0000000000000000000, 0.0000000000000000000, 0.0000000000000000000 ) ) ;
#146 = PRODUCT_RELATED_PRODUCT_CATEGORY ( 'detail', '', ( #158 ) ) ;
#147 = EDGE_CURVE ( 'NONE', #66, #73, #112, .T. ) ;
#148 = ADVANCED_FACE ( 'NONE', ( #228 ), #115, .F. ) ;
#149 = ADVANCED_FACE ( 'NONE', ( #223 ), #119, .T. ) ;
#150 = ADVANCED_FACE ( 'NONE', ( #226 ), #123, .F. ) ;
#151 = EDGE_CURVE ( 'NONE', #69, #68, #127, .T. ) ;
#152 = ADVANCED_FACE ( 'NONE', ( #221 ), #130, .F. ) ;
#153 = EDGE_CURVE ( 'NONE', #68, #72, #134, .T. ) ;
#154 = EDGE_CURVE ( 'NONE', #71, #66, #138, .T. ) ;
#155 = EDGE_CURVE ( 'NONE', #73, #68, #141, .T. ) ;
#156 = APPROVAL ( #62, 'UNSPECIFIED' ) ;
#157 = EDGE_CURVE ( 'NONE', #67, #69, #144, .T. ) ;
#158 = PRODUCT ( 'sone3D', 'sone3D', '', ( #34 ) ) ;
#159 = CC_DESIGN_PERSON_AND_ORGANIZATION_ASSIGNMENT ( #52, #53, ( #18 ) ) ;
#160 = LOCAL_TIME ( 19, 22, 23.00000000000000000, #17 ) ;
#161 = CC_DESIGN_PERSON_AND_ORGANIZATION_ASSIGNMENT ( #54, #55, ( #18 ) ) ;
#162 =( GEOMETRIC_REPRESENTATION_CONTEXT ( 3 ) GLOBAL_UNCERTAINTY_ASSIGNED_CONTEXT ( ( #195 ) ) GLOBAL_UNIT_ASSIGNED_CONTEXT ( ( #163, #164, #165 ) ) REPRESENTATION_CONTEXT ( 'NONE', 'WORKASPACE' ) );
#163 =( LENGTH_UNIT ( ) NAMED_UNIT ( * ) SI_UNIT ( .MILLI., .METRE. ) );
#164 =( NAMED_UNIT ( * ) PLANE_ANGLE_UNIT ( ) SI_UNIT ( $, .RADIAN. ) );
#165 =( NAMED_UNIT ( * ) SI_UNIT ( $, .STERADIAN. ) SOLID_ANGLE_UNIT ( ) );
#166 = DIRECTION ( 'NONE',  ( 1.734723475976807100E-016, -1.000000000000000000, 0.0000000000000000000 ) ) ;
#167 = DIRECTION ( 'NONE',  ( 1.000000000000000000, 1.734723475976807100E-016, -0.0000000000000000000 ) ) ;
#168 = DIRECTION ( 'NONE',  ( 1.734723475976807100E-016, -1.000000000000000000, 0.0000000000000000000 ) ) ;
#169 = CARTESIAN_POINT ( 'NONE',  ( -15.00000000000000000, -5.000000000000000900, -500.0000000000000000 ) ) ;
#170 = DIRECTION ( 'NONE',  ( 1.000000000000000000, 0.0000000000000000000, 0.0000000000000000000 ) ) ;
#171 = LINE ( 'NONE', #172, #3 ) ;
#172 = CARTESIAN_POINT ( 'NONE',  ( -15.00000000000000200, 4.999999999999999100, 500.0000000000000000 ) ) ;
#173 = DIRECTION ( 'NONE',  ( -1.000000000000000000, -0.0000000000000000000, -0.0000000000000000000 ) ) ;
#174 = LINE ( 'NONE', #191, #234 ) ;
#175 = DIRECTION ( 'NONE',  ( -0.0000000000000000000, -0.0000000000000000000, -1.000000000000000000 ) ) ;
#176 = CARTESIAN_POINT ( 'NONE',  ( -15.00000000000000000, -5.000000000000000900, 500.0000000000000000 ) ) ;
#177 = DIRECTION ( 'NONE',  ( -0.0000000000000000000, -0.0000000000000000000, -1.000000000000000000 ) ) ;
#178 = LINE ( 'NONE', #192, #236 ) ;
#179 = LINE ( 'NONE', #176, #224 ) ;
#180 = PLANE ( 'NONE',  #220 ) ;
#181 = CARTESIAN_POINT ( 'NONE',  ( -15.00000000000000000, -5.000000000000000900, 500.0000000000000000 ) ) ;
#182 = DIRECTION ( 'NONE',  ( -0.0000000000000000000, -0.0000000000000000000, -1.000000000000000000 ) ) ;
#183 = DIRECTION ( 'NONE',  ( 0.0000000000000000000, 1.000000000000000000, 0.0000000000000000000 ) ) ;
#184 = LINE ( 'NONE', #187, #23 ) ;
#185 = CARTESIAN_POINT ( 'NONE',  ( -15.00000000000000200, 4.999999999999999100, 500.0000000000000000 ) ) ;
#186 = DIRECTION ( 'NONE',  ( 0.0000000000000000000, -0.0000000000000000000, 1.000000000000000000 ) ) ;
#187 = CARTESIAN_POINT ( 'NONE',  ( 15.00000000000000000, -5.000000000000000900, 500.0000000000000000 ) ) ;
#188 = DIRECTION ( 'NONE',  ( -1.734723475976807100E-016, 1.000000000000000000, 0.0000000000000000000 ) ) ;
#189 = CARTESIAN_POINT ( 'NONE',  ( -15.00000000000000200, 4.999999999999999100, 500.0000000000000000 ) ) ;
#190 = LINE ( 'NONE', #185, #216 ) ;
#191 = CARTESIAN_POINT ( 'NONE',  ( -15.00000000000000200, 4.999999999999999100, 500.0000000000000000 ) ) ;
#192 = CARTESIAN_POINT ( 'NONE',  ( -15.00000000000000200, 4.999999999999999100, -500.0000000000000000 ) ) ;
#193 = ADVANCED_BREP_SHAPE_REPRESENTATION ( 'sone3D', ( #27, #20 ), #162 ) ;
#194 = PERSON ( 'UNSPECIFIED', 'UNSPECIFIED', 'UNSPECIFIED', ('UNSPECIFIED'), ('UNSPECIFIED'), ('UNSPECIFIED') ) ;
#195 = UNCERTAINTY_MEASURE_WITH_UNIT (LENGTH_MEASURE( 1.000000000000000100E-005 ), #163, 'distance_accuracy_value', 'NONE');
#196 = DIRECTION ( 'NONE',  ( 0.0000000000000000000, 0.0000000000000000000, 1.000000000000000000 ) ) ;
#197 = APPLICATION_CONTEXT ( 'configuration controlled 3d designs of mechanical parts and assemblies' ) ;
#198 = APPLICATION_CONTEXT ( 'configuration controlled 3d designs of mechanical parts and assemblies' ) ;
#199 = EDGE_CURVE ( 'NONE', #71, #67, #179, .T. ) ;
#200 = EDGE_CURVE ( 'NONE', #72, #67, #178, .T. ) ;
#201 = EDGE_CURVE ( 'NONE', #70, #72, #174, .T. ) ;
#202 = EDGE_CURVE ( 'NONE', #73, #70, #190, .T. ) ;
#203 = EDGE_CURVE ( 'NONE', #70, #71, #171, .T. ) ;
#204 = ADVANCED_FACE ( 'NONE', ( #218 ), #137, .F. ) ;
#205 = EDGE_CURVE ( 'NONE', #66, #69, #184, .T. ) ;
#206 = ADVANCED_FACE ( 'NONE', ( #15 ), #180, .F. ) ;
#207 = PRODUCT_DEFINITION ( 'UNKNOWN', '', #18, #28 ) ;
#208 = CC_DESIGN_PERSON_AND_ORGANIZATION_ASSIGNMENT ( #35, #36, ( #158 ) ) ;
#209 = APPROVAL ( #39, 'UNSPECIFIED' ) ;
#210 = LOCAL_TIME ( 19, 22, 23.00000000000000000, #10 ) ;
#211 = CC_DESIGN_PERSON_AND_ORGANIZATION_ASSIGNMENT ( #43, #44, ( #207 ) ) ;
#212 = LOCAL_TIME ( 19, 22, 23.00000000000000000, #22 ) ;
#213 = CC_DESIGN_DATE_AND_TIME_ASSIGNMENT ( #45, #46, ( #207 ) ) ;
#214 = APPROVAL ( #48, 'UNSPECIFIED' ) ;
#215 = AXIS2_PLACEMENT_3D ( 'NONE', #131, #132, #133 ) ;
#216 = VECTOR ( 'NONE', #173, 1000.000000000000000 ) ;
#217 = VECTOR ( 'NONE', #170, 1000.000000000000000 ) ;
#218 = FACE_OUTER_BOUND ( 'NONE', #82, .T. ) ;
#219 = VECTOR ( 'NONE', #114, 1000.000000000000000 ) ;
#220 = AXIS2_PLACEMENT_3D ( 'NONE', #189, #167, #188 ) ;
#221 = FACE_OUTER_BOUND ( 'NONE', #80, .T. ) ;
#222 = VECTOR ( 'NONE', #129, 1000.000000000000000 ) ;
#223 = FACE_OUTER_BOUND ( 'NONE', #84, .T. ) ;
#224 = VECTOR ( 'NONE', #177, 1000.000000000000000 ) ;
#225 = VECTOR ( 'NONE', #140, 1000.000000000000000 ) ;
#226 = FACE_OUTER_BOUND ( 'NONE', #83, .T. ) ;
#227 = CLOSED_SHELL ( 'NONE', ( #206, #204, #152, #150, #149, #148 ) ) ;
#228 = FACE_OUTER_BOUND ( 'NONE', #85, .T. ) ;
#229 = AXIS2_PLACEMENT_3D ( 'NONE', #181, #183, #186 ) ;
#230 = AXIS2_PLACEMENT_3D ( 'NONE', #124, #125, #126 ) ;
#231 = AXIS2_PLACEMENT_3D ( 'NONE', #116, #117, #118 ) ;
#232 = VECTOR ( 'NONE', #136, 1000.000000000000000 ) ;
#233 = AXIS2_PLACEMENT_3D ( 'NONE', #120, #121, #122 ) ;
#234 = VECTOR ( 'NONE', #175, 1000.000000000000000 ) ;
#235 = VECTOR ( 'NONE', #143, 1000.000000000000000 ) ;
#236 = VECTOR ( 'NONE', #166, 1000.000000000000000 ) ;
#237 = DIRECTION ( 'NONE',  ( 1.000000000000000000, 0.0000000000000000000, 0.0000000000000000000 ) ) ;
ENDSEC;
END-ISO-10303-21;
