ISO-10303-21;
HEADER;
FILE_DESCRIPTION (( 'STEP AP203' ),
    '1' );
FILE_NAME ('sone3D.STEP',
    '2015-08-11T10:22:08',
    ( '' ),
    ( '' ),
    'SwSTEP 2.0',
    'SolidWorks 2012',
    '' );
FILE_SCHEMA (( 'CONFIG_CONTROL_DESIGN' ));
ENDSEC;

DATA;
#1 = APPLICATION_CONTEXT ( 'configuration controlled 3d designs of mechanical parts and assemblies' ) ;
#2 = APPLICATION_CONTEXT ( 'configuration controlled 3d designs of mechanical parts and assemblies' ) ;
#3 = PRODUCT ( 'sone3D', 'sone3D', '', ( #117 ) ) ;
#4 = DIRECTION ( 'NONE',  ( -1.000000000000000000, 0.0000000000000000000, 0.0000000000000000000 ) ) ;
#5 = CARTESIAN_POINT ( 'NONE',  ( 12.49999999999999600, 4.999999999999999100, 500.0000000000000000 ) ) ;
#6 = PLANE ( 'NONE',  #172 ) ;
#7 = DIRECTION ( 'NONE',  ( 0.0000000000000000000, -0.0000000000000000000, -1.000000000000000000 ) ) ;
#8 = DIRECTION ( 'NONE',  ( 0.0000000000000000000, -1.000000000000000000, 0.0000000000000000000 ) ) ;
#9 = CARTESIAN_POINT ( 'NONE',  ( -12.50000000000000400, 4.999999999999999100, 500.0000000000000000 ) ) ;
#10 = PLANE ( 'NONE',  #187 ) ;
#11 = DIRECTION ( 'NONE',  ( 1.000000000000000000, 0.0000000000000000000, 0.0000000000000000000 ) ) ;
#12 = DIRECTION ( 'NONE',  ( -0.0000000000000000000, 0.0000000000000000000, 1.000000000000000000 ) ) ;
#13 = CARTESIAN_POINT ( 'NONE',  ( 0.0000000000000000000, 0.0000000000000000000, -500.0000000000000000 ) ) ;
#14 = DIRECTION ( 'NONE',  ( -0.0000000000000000000, 1.000000000000000000, -0.0000000000000000000 ) ) ;
#15 = CARTESIAN_POINT ( 'NONE',  ( 12.49999999999999600, 4.999999999999999100, 500.0000000000000000 ) ) ;
#16 = LINE ( 'NONE', #15, #155 ) ;
#17 = PLANE ( 'NONE',  #189 ) ;
#18 = DIRECTION ( 'NONE',  ( -1.000000000000000000, -0.0000000000000000000, -0.0000000000000000000 ) ) ;
#19 = CARTESIAN_POINT ( 'NONE',  ( -12.50000000000000400, 4.999999999999999100, -500.0000000000000000 ) ) ;
#20 = LINE ( 'NONE', #19, #198 ) ;
#21 = CARTESIAN_POINT ( 'NONE',  ( 12.49999999999999600, -5.000000000000000900, -500.0000000000000000 ) ) ;
#22 = CARTESIAN_POINT ( 'NONE',  ( -12.50000000000000400, 4.999999999999999100, 500.0000000000000000 ) ) ;
#23 = CARTESIAN_POINT ( 'NONE',  ( -12.50000000000000400, 4.999999999999999100, -500.0000000000000000 ) ) ;
#24 = CARTESIAN_POINT ( 'NONE',  ( 12.49999999999999600, 4.999999999999999100, 500.0000000000000000 ) ) ;
#25 = CARTESIAN_POINT ( 'NONE',  ( -12.50000000000000000, -5.000000000000000900, 500.0000000000000000 ) ) ;
#26 = CARTESIAN_POINT ( 'NONE',  ( 12.49999999999999600, 4.999999999999999100, -500.0000000000000000 ) ) ;
#27 = CARTESIAN_POINT ( 'NONE',  ( -12.50000000000000000, -5.000000000000000900, -500.0000000000000000 ) ) ;
#28 = CARTESIAN_POINT ( 'NONE',  ( 12.49999999999999600, -5.000000000000000900, 500.0000000000000000 ) ) ;
#29 = ORIENTED_EDGE ( 'NONE', *, *, #219, .F. ) ;
#30 = ORIENTED_EDGE ( 'NONE', *, *, #235, .T. ) ;
#31 = ORIENTED_EDGE ( 'NONE', *, *, #217, .F. ) ;
#32 = ORIENTED_EDGE ( 'NONE', *, *, #220, .T. ) ;
#33 = ORIENTED_EDGE ( 'NONE', *, *, #226, .T. ) ;
#34 = ORIENTED_EDGE ( 'NONE', *, *, #230, .F. ) ;
#35 = ORIENTED_EDGE ( 'NONE', *, *, #222, .F. ) ;
#36 = ORIENTED_EDGE ( 'NONE', *, *, #217, .T. ) ;
#37 = ORIENTED_EDGE ( 'NONE', *, *, #236, .T. ) ;
#38 = ORIENTED_EDGE ( 'NONE', *, *, #204, .F. ) ;
#39 = ORIENTED_EDGE ( 'NONE', *, *, #227, .F. ) ;
#40 = ORIENTED_EDGE ( 'NONE', *, *, #222, .T. ) ;
#41 = ORIENTED_EDGE ( 'NONE', *, *, #234, .F. ) ;
#42 = ORIENTED_EDGE ( 'NONE', *, *, #203, .T. ) ;
#43 = VERTEX_POINT ( 'NONE', #28 ) ;
#44 = VERTEX_POINT ( 'NONE', #27 ) ;
#45 = VERTEX_POINT ( 'NONE', #26 ) ;
#46 = VERTEX_POINT ( 'NONE', #25 ) ;
#47 = VERTEX_POINT ( 'NONE', #24 ) ;
#48 = VERTEX_POINT ( 'NONE', #23 ) ;
#49 = VERTEX_POINT ( 'NONE', #22 ) ;
#50 = VERTEX_POINT ( 'NONE', #21 ) ;
#51 = ORIENTED_EDGE ( 'NONE', *, *, #236, .F. ) ;
#52 = ORIENTED_EDGE ( 'NONE', *, *, #226, .F. ) ;
#53 = ORIENTED_EDGE ( 'NONE', *, *, #203, .F. ) ;
#54 = ORIENTED_EDGE ( 'NONE', *, *, #204, .T. ) ;
#55 = ORIENTED_EDGE ( 'NONE', *, *, #230, .T. ) ;
#56 = ORIENTED_EDGE ( 'NONE', *, *, #220, .F. ) ;
#57 = ORIENTED_EDGE ( 'NONE', *, *, #234, .T. ) ;
#58 = ORIENTED_EDGE ( 'NONE', *, *, #227, .T. ) ;
#59 = ORIENTED_EDGE ( 'NONE', *, *, #235, .F. ) ;
#60 = ORIENTED_EDGE ( 'NONE', *, *, #219, .T. ) ;
#61 = EDGE_LOOP ( 'NONE', ( #59, #53, #51, #52 ) ) ;
#62 = EDGE_LOOP ( 'NONE', ( #60, #55, #54, #57 ) ) ;
#63 = EDGE_LOOP ( 'NONE', ( #37, #39, #38, #40 ) ) ;
#64 = EDGE_LOOP ( 'NONE', ( #33, #35, #34, #36 ) ) ;
#65 = EDGE_LOOP ( 'NONE', ( #30, #31, #29, #32 ) ) ;
#66 = PLANE ( 'NONE',  #191 ) ;
#67 = DIRECTION ( 'NONE',  ( 0.0000000000000000000, 0.0000000000000000000, 1.000000000000000000 ) ) ;
#68 = CARTESIAN_POINT ( 'NONE',  ( -12.50000000000000000, -5.000000000000000900, 500.0000000000000000 ) ) ;
#69 = DIRECTION ( 'NONE',  ( 0.0000000000000000000, 1.000000000000000000, 0.0000000000000000000 ) ) ;
#70 = DIRECTION ( 'NONE',  ( 0.0000000000000000000, -0.0000000000000000000, 1.000000000000000000 ) ) ;
#71 = LINE ( 'NONE', #72, #196 ) ;
#72 = CARTESIAN_POINT ( 'NONE',  ( -12.50000000000000000, -5.000000000000000900, 500.0000000000000000 ) ) ;
#73 = DIRECTION ( 'NONE',  ( -0.0000000000000000000, -0.0000000000000000000, -1.000000000000000000 ) ) ;
#74 = PLANE ( 'NONE',  #199 ) ;
#75 = LINE ( 'NONE', #76, #180 ) ;
#76 = CARTESIAN_POINT ( 'NONE',  ( -12.50000000000000400, 4.999999999999999100, 500.0000000000000000 ) ) ;
#77 = DIRECTION ( 'NONE',  ( 3.469446951953614200E-016, -1.000000000000000000, 0.0000000000000000000 ) ) ;
#78 = LINE ( 'NONE', #79, #192 ) ;
#79 = CARTESIAN_POINT ( 'NONE',  ( -12.50000000000000400, 4.999999999999999100, 500.0000000000000000 ) ) ;
#80 = DIRECTION ( 'NONE',  ( -0.0000000000000000000, -0.0000000000000000000, -1.000000000000000000 ) ) ;
#81 = LINE ( 'NONE', #82, #174 ) ;
#82 = CARTESIAN_POINT ( 'NONE',  ( 12.49999999999999600, -5.000000000000000900, 500.0000000000000000 ) ) ;
#83 = DIRECTION ( 'NONE',  ( -0.0000000000000000000, -0.0000000000000000000, -1.000000000000000000 ) ) ;
#84 = CARTESIAN_POINT ( 'NONE',  ( 0.0000000000000000000, 0.0000000000000000000, 500.0000000000000000 ) ) ;
#85 = DIRECTION ( 'NONE',  ( -0.0000000000000000000, 0.0000000000000000000, 1.000000000000000000 ) ) ;
#86 = DIRECTION ( 'NONE',  ( 1.000000000000000000, 0.0000000000000000000, 0.0000000000000000000 ) ) ;
#87 = LINE ( 'NONE', #88, #175 ) ;
#88 = CARTESIAN_POINT ( 'NONE',  ( -12.50000000000000000, -5.000000000000000900, -500.0000000000000000 ) ) ;
#89 = DIRECTION ( 'NONE',  ( 1.000000000000000000, 0.0000000000000000000, 0.0000000000000000000 ) ) ;
#90 = PLANE ( 'NONE',  #166 ) ;
#91 = LINE ( 'NONE', #92, #181 ) ;
#92 = CARTESIAN_POINT ( 'NONE',  ( 12.49999999999999600, 4.999999999999999100, 500.0000000000000000 ) ) ;
#93 = DIRECTION ( 'NONE',  ( -0.0000000000000000000, -0.0000000000000000000, -1.000000000000000000 ) ) ;
#94 = LINE ( 'NONE', #95, #159 ) ;
#95 = CARTESIAN_POINT ( 'NONE',  ( -12.50000000000000000, -5.000000000000000900, 500.0000000000000000 ) ) ;
#96 = DIRECTION ( 'NONE',  ( 1.000000000000000000, 0.0000000000000000000, 0.0000000000000000000 ) ) ;
#97 = LINE ( 'NONE', #98, #170 ) ;
#98 = CARTESIAN_POINT ( 'NONE',  ( -12.50000000000000400, 4.999999999999999100, 500.0000000000000000 ) ) ;
#99 = DIRECTION ( 'NONE',  ( -1.000000000000000000, -0.0000000000000000000, -0.0000000000000000000 ) ) ;
#100 = LINE ( 'NONE', #101, #194 ) ;
#101 = CARTESIAN_POINT ( 'NONE',  ( -12.50000000000000400, 4.999999999999999100, -500.0000000000000000 ) ) ;
#102 = DIRECTION ( 'NONE',  ( 3.469446951953614200E-016, -1.000000000000000000, 0.0000000000000000000 ) ) ;
#103 = LINE ( 'NONE', #104, #177 ) ;
#104 = CARTESIAN_POINT ( 'NONE',  ( 12.49999999999999600, 4.999999999999999100, -500.0000000000000000 ) ) ;
#105 = DIRECTION ( 'NONE',  ( -0.0000000000000000000, 1.000000000000000000, -0.0000000000000000000 ) ) ;
#106 = CARTESIAN_POINT ( 'NONE',  ( -12.50000000000000400, 4.999999999999999100, 500.0000000000000000 ) ) ;
#107 = DIRECTION ( 'NONE',  ( 1.000000000000000000, 3.469446951953614200E-016, -0.0000000000000000000 ) ) ;
#108 = DIRECTION ( 'NONE',  ( -3.469446951953614200E-016, 1.000000000000000000, 0.0000000000000000000 ) ) ;
#109 =( LENGTH_UNIT ( ) NAMED_UNIT ( * ) SI_UNIT ( .MILLI., .METRE. ) );
#110 =( NAMED_UNIT ( * ) PLANE_ANGLE_UNIT ( ) SI_UNIT ( $, .RADIAN. ) );
#111 =( NAMED_UNIT ( * ) SI_UNIT ( $, .STERADIAN. ) SOLID_ANGLE_UNIT ( ) );
#112 = APPLICATION_PROTOCOL_DEFINITION ( 'international standard', 'config_control_design', 1994, #2 ) ;
#113 = CARTESIAN_POINT ( 'NONE',  ( 0.0000000000000000000, 0.0000000000000000000, 0.0000000000000000000 ) ) ;
#114 = DIRECTION ( 'NONE',  ( 0.0000000000000000000, 0.0000000000000000000, 1.000000000000000000 ) ) ;
#115 = DIRECTION ( 'NONE',  ( 1.000000000000000000, 0.0000000000000000000, 0.0000000000000000000 ) ) ;
#116 = SHAPE_DEFINITION_REPRESENTATION ( #152, #200 ) ;
#117 = MECHANICAL_CONTEXT ( 'NONE', #2, 'mechanical' ) ;
#118 = PERSON_AND_ORGANIZATION ( #201, #176 ) ;
#119 = PERSON_AND_ORGANIZATION_ROLE ( 'design_owner' ) ;
#120 = APPLICATION_PROTOCOL_DEFINITION ( 'international standard', 'config_control_design', 1994, #1 ) ;
#121 = PERSON_AND_ORGANIZATION ( #201, #176 ) ;
#122 = APPROVAL_STATUS ( 'not_yet_approved' ) ;
#123 = APPROVAL_ROLE ( '' ) ;
#124 = DATE_AND_TIME ( #168, #231 ) ;
#125 = APPROVAL_DATE_TIME ( #124, #225 ) ;
#126 = PERSON_AND_ORGANIZATION ( #201, #176 ) ;
#127 = PERSON_AND_ORGANIZATION_ROLE ( 'creator' ) ;
#128 = DATE_AND_TIME ( #161, #233 ) ;
#129 = DATE_TIME_ROLE ( 'creation_date' ) ;
#130 = PERSON_AND_ORGANIZATION ( #201, #176 ) ;
#131 = APPROVAL_STATUS ( 'not_yet_approved' ) ;
#132 = APPROVAL_ROLE ( '' ) ;
#133 = DATE_AND_TIME ( #157, #214 ) ;
#134 = APPROVAL_DATE_TIME ( #133, #213 ) ;
#135 = PERSON_AND_ORGANIZATION ( #201, #176 ) ;
#136 = PERSON_AND_ORGANIZATION_ROLE ( 'creator' ) ;
#137 = PERSON_AND_ORGANIZATION ( #201, #176 ) ;
#138 = PERSON_AND_ORGANIZATION_ROLE ( 'design_supplier' ) ;
#139 = SECURITY_CLASSIFICATION_LEVEL ( 'unclassified' ) ;
#140 = PERSON_AND_ORGANIZATION ( #201, #176 ) ;
#141 = PERSON_AND_ORGANIZATION_ROLE ( 'classification_officer' ) ;
#142 = DATE_AND_TIME ( #171, #209 ) ;
#143 = DATE_TIME_ROLE ( 'classification_date' ) ;
#144 = PERSON_AND_ORGANIZATION ( #201, #176 ) ;
#145 = APPROVAL_STATUS ( 'not_yet_approved' ) ;
#146 = APPROVAL_ROLE ( '' ) ;
#147 = DATE_AND_TIME ( #165, #211 ) ;
#148 = APPROVAL_DATE_TIME ( #147, #207 ) ;
#149 = EDGE_LOOP ( 'NONE', ( #42, #56, #41, #58 ) ) ;
#150 =( GEOMETRIC_REPRESENTATION_CONTEXT ( 3 ) GLOBAL_UNCERTAINTY_ASSIGNED_CONTEXT ( ( #202 ) ) GLOBAL_UNIT_ASSIGNED_CONTEXT ( ( #109, #110, #111 ) ) REPRESENTATION_CONTEXT ( 'NONE', 'WORKASPACE' ) );
#151 = MANIFOLD_SOLID_BREP ( 'ÎÞ½ - µoµ1', #183 ) ;
#152 = PRODUCT_DEFINITION_SHAPE ( 'NONE', 'NONE',  #229 ) ;
#153 = DESIGN_CONTEXT ( 'detailed design', #1, 'design' ) ;
#154 = FACE_OUTER_BOUND ( 'NONE', #63, .T. ) ;
#155 = VECTOR ( 'NONE', #14, 1000.000000000000000 ) ;
#156 = COORDINATED_UNIVERSAL_TIME_OFFSET ( 9, 0, .AHEAD. ) ;
#157 = CALENDAR_DATE ( 2015, 11, 8 ) ;
#158 = COORDINATED_UNIVERSAL_TIME_OFFSET ( 9, 0, .AHEAD. ) ;
#159 = VECTOR ( 'NONE', #96, 1000.000000000000000 ) ;
#160 = FACE_OUTER_BOUND ( 'NONE', #62, .T. ) ;
#161 = CALENDAR_DATE ( 2015, 11, 8 ) ;
#162 = COORDINATED_UNIVERSAL_TIME_OFFSET ( 9, 0, .AHEAD. ) ;
#163 = FACE_OUTER_BOUND ( 'NONE', #149, .T. ) ;
#164 = APPROVAL_PERSON_ORGANIZATION ( #121, #225, #123 ) ;
#165 = CALENDAR_DATE ( 2015, 11, 8 ) ;
#166 = AXIS2_PLACEMENT_3D ( 'NONE', #106, #107, #108 ) ;
#167 = CC_DESIGN_APPROVAL ( #213, ( #188 ) ) ;
#168 = CALENDAR_DATE ( 2015, 11, 8 ) ;
#169 = COORDINATED_UNIVERSAL_TIME_OFFSET ( 9, 0, .AHEAD. ) ;
#170 = VECTOR ( 'NONE', #99, 1000.000000000000000 ) ;
#171 = CALENDAR_DATE ( 2015, 11, 8 ) ;
#172 = AXIS2_PLACEMENT_3D ( 'NONE', #5, #4, #67 ) ;
#173 = APPROVAL_PERSON_ORGANIZATION ( #144, #207, #146 ) ;
#174 = VECTOR ( 'NONE', #83, 1000.000000000000000 ) ;
#175 = VECTOR ( 'NONE', #89, 1000.000000000000000 ) ;
#176 = ORGANIZATION ( 'UNSPECIFIED', 'UNSPECIFIED', '' ) ;
#177 = VECTOR ( 'NONE', #105, 1000.000000000000000 ) ;
#178 = SECURITY_CLASSIFICATION ( '', '', #139 ) ;
#179 = CC_DESIGN_SECURITY_CLASSIFICATION ( #178, ( #188 ) ) ;
#180 = VECTOR ( 'NONE', #77, 1000.000000000000000 ) ;
#181 = VECTOR ( 'NONE', #93, 1000.000000000000000 ) ;
#182 = CC_DESIGN_APPROVAL ( #207, ( #178 ) ) ;
#183 = CLOSED_SHELL ( 'NONE', ( #237, #216, #215, #206, #224, #205 ) ) ;
#184 = FACE_OUTER_BOUND ( 'NONE', #61, .T. ) ;
#185 = COORDINATED_UNIVERSAL_TIME_OFFSET ( 9, 0, .AHEAD. ) ;
#186 = APPROVAL_PERSON_ORGANIZATION ( #130, #213, #132 ) ;
#187 = AXIS2_PLACEMENT_3D ( 'NONE', #9, #8, #7 ) ;
#188 = PRODUCT_DEFINITION_FORMATION_WITH_SPECIFIED_SOURCE ( 'ANY', '', #3, .NOT_KNOWN. ) ;
#189 = AXIS2_PLACEMENT_3D ( 'NONE', #13, #12, #11 ) ;
#190 = FACE_OUTER_BOUND ( 'NONE', #64, .T. ) ;
#191 = AXIS2_PLACEMENT_3D ( 'NONE', #68, #69, #70 ) ;
#192 = VECTOR ( 'NONE', #80, 1000.000000000000000 ) ;
#193 = CC_DESIGN_APPROVAL ( #225, ( #229 ) ) ;
#194 = VECTOR ( 'NONE', #102, 1000.000000000000000 ) ;
#195 = FACE_OUTER_BOUND ( 'NONE', #65, .T. ) ;
#196 = VECTOR ( 'NONE', #73, 1000.000000000000000 ) ;
#197 = AXIS2_PLACEMENT_3D ( 'NONE', #113, #114, #115 ) ;
#198 = VECTOR ( 'NONE', #18, 1000.000000000000000 ) ;
#199 = AXIS2_PLACEMENT_3D ( 'NONE', #84, #85, #86 ) ;
#200 = ADVANCED_BREP_SHAPE_REPRESENTATION ( 'sone3D', ( #151, #197 ), #150 ) ;
#201 = PERSON ( 'UNSPECIFIED', 'UNSPECIFIED', 'UNSPECIFIED', ('UNSPECIFIED'), ('UNSPECIFIED'), ('UNSPECIFIED') ) ;
#202 = UNCERTAINTY_MEASURE_WITH_UNIT (LENGTH_MEASURE( 1.000000000000000100E-005 ), #109, 'distance_accuracy_value', 'NONE');
#203 = EDGE_CURVE ( 'NONE', #45, #48, #20, .T. ) ;
#204 = EDGE_CURVE ( 'NONE', #43, #47, #16, .T. ) ;
#205 = ADVANCED_FACE ( 'NONE', ( #184 ), #17, .F. ) ;
#206 = ADVANCED_FACE ( 'NONE', ( #163 ), #10, .F. ) ;
#207 = APPROVAL ( #145, 'UNSPECIFIED' ) ;
#208 = CC_DESIGN_PERSON_AND_ORGANIZATION_ASSIGNMENT ( #140, #141, ( #178 ) ) ;
#209 = LOCAL_TIME ( 19, 22, 8.000000000000000000, #162 ) ;
#210 = CC_DESIGN_DATE_AND_TIME_ASSIGNMENT ( #142, #143, ( #178 ) ) ;
#211 = LOCAL_TIME ( 19, 22, 8.000000000000000000, #169 ) ;
#212 = PRODUCT_RELATED_PRODUCT_CATEGORY ( 'detail', '', ( #3 ) ) ;
#213 = APPROVAL ( #131, 'UNSPECIFIED' ) ;
#214 = LOCAL_TIME ( 19, 22, 8.000000000000000000, #185 ) ;
#215 = ADVANCED_FACE ( 'NONE', ( #154 ), #6, .F. ) ;
#216 = ADVANCED_FACE ( 'NONE', ( #190 ), #66, .F. ) ;
#217 = EDGE_CURVE ( 'NONE', #46, #44, #71, .T. ) ;
#218 = CC_DESIGN_PERSON_AND_ORGANIZATION_ASSIGNMENT ( #118, #119, ( #3 ) ) ;
#219 = EDGE_CURVE ( 'NONE', #49, #46, #75, .T. ) ;
#220 = EDGE_CURVE ( 'NONE', #49, #48, #78, .T. ) ;
#221 = CC_DESIGN_PERSON_AND_ORGANIZATION_ASSIGNMENT ( #126, #127, ( #229 ) ) ;
#222 = EDGE_CURVE ( 'NONE', #43, #50, #81, .T. ) ;
#223 = CC_DESIGN_PERSON_AND_ORGANIZATION_ASSIGNMENT ( #135, #136, ( #188 ) ) ;
#224 = ADVANCED_FACE ( 'NONE', ( #160 ), #74, .T. ) ;
#225 = APPROVAL ( #122, 'UNSPECIFIED' ) ;
#226 = EDGE_CURVE ( 'NONE', #44, #50, #87, .T. ) ;
#227 = EDGE_CURVE ( 'NONE', #47, #45, #91, .T. ) ;
#228 = CC_DESIGN_PERSON_AND_ORGANIZATION_ASSIGNMENT ( #137, #138, ( #188 ) ) ;
#229 = PRODUCT_DEFINITION ( 'UNKNOWN', '', #188, #153 ) ;
#230 = EDGE_CURVE ( 'NONE', #46, #43, #94, .T. ) ;
#231 = LOCAL_TIME ( 19, 22, 8.000000000000000000, #156 ) ;
#232 = CC_DESIGN_DATE_AND_TIME_ASSIGNMENT ( #128, #129, ( #229 ) ) ;
#233 = LOCAL_TIME ( 19, 22, 8.000000000000000000, #158 ) ;
#234 = EDGE_CURVE ( 'NONE', #47, #49, #97, .T. ) ;
#235 = EDGE_CURVE ( 'NONE', #48, #44, #100, .T. ) ;
#236 = EDGE_CURVE ( 'NONE', #50, #45, #103, .T. ) ;
#237 = ADVANCED_FACE ( 'NONE', ( #195 ), #90, .F. ) ;
ENDSEC;
END-ISO-10303-21;
