ISO-10303-21;
HEADER;
FILE_DESCRIPTION (( 'STEP AP203' ),
    '1' );
FILE_NAME ('sone3D.STEP',
    '2015-08-11T10:21:49',
    ( '' ),
    ( '' ),
    'SwSTEP 2.0',
    'SolidWorks 2012',
    '' );
FILE_SCHEMA (( 'CONFIG_CONTROL_DESIGN' ));
ENDSEC;

DATA;
#1 = PRODUCT ( 'sone3D', 'sone3D', '', ( #2 ) ) ;
#2 = MECHANICAL_CONTEXT ( 'NONE', #148, 'mechanical' ) ;
#3 = PERSON_AND_ORGANIZATION ( #202, #176 ) ;
#4 = PERSON_AND_ORGANIZATION_ROLE ( 'design_owner' ) ;
#5 = APPLICATION_PROTOCOL_DEFINITION ( 'international standard', 'config_control_design', 1994, #149 ) ;
#6 = PERSON_AND_ORGANIZATION ( #202, #176 ) ;
#7 = APPROVAL_STATUS ( 'not_yet_approved' ) ;
#8 = APPROVAL_ROLE ( '' ) ;
#9 = DATE_AND_TIME ( #187, #233 ) ;
#10 = APPROVAL_DATE_TIME ( #9, #222 ) ;
#11 = PERSON_AND_ORGANIZATION ( #202, #176 ) ;
#12 = PERSON_AND_ORGANIZATION_ROLE ( 'creator' ) ;
#13 = DATE_AND_TIME ( #165, #235 ) ;
#14 = DATE_TIME_ROLE ( 'creation_date' ) ;
#15 = PERSON_AND_ORGANIZATION ( #202, #176 ) ;
#16 = APPROVAL_STATUS ( 'not_yet_approved' ) ;
#17 = APPROVAL_ROLE ( '' ) ;
#18 = DATE_AND_TIME ( #191, #206 ) ;
#19 = APPROVAL_DATE_TIME ( #18, #204 ) ;
#20 = PERSON_AND_ORGANIZATION ( #202, #176 ) ;
#21 = PERSON_AND_ORGANIZATION_ROLE ( 'creator' ) ;
#22 = PERSON_AND_ORGANIZATION ( #202, #176 ) ;
#23 = PERSON_AND_ORGANIZATION_ROLE ( 'design_supplier' ) ;
#24 = SECURITY_CLASSIFICATION_LEVEL ( 'unclassified' ) ;
#25 = PERSON_AND_ORGANIZATION ( #202, #176 ) ;
#26 = PERSON_AND_ORGANIZATION_ROLE ( 'classification_officer' ) ;
#27 = DATE_AND_TIME ( #182, #209 ) ;
#28 = DATE_TIME_ROLE ( 'classification_date' ) ;
#29 = PERSON_AND_ORGANIZATION ( #202, #176 ) ;
#30 = APPROVAL_STATUS ( 'not_yet_approved' ) ;
#31 = APPROVAL_ROLE ( '' ) ;
#32 = DATE_AND_TIME ( #183, #203 ) ;
#33 = APPROVAL_DATE_TIME ( #32, #214 ) ;
#34 = EDGE_LOOP ( 'NONE', ( #45, #48, #43, #40 ) ) ;
#35 = EDGE_LOOP ( 'NONE', ( #49, #47, #46, #51 ) ) ;
#36 = EDGE_LOOP ( 'NONE', ( #44, #50, #41, #42 ) ) ;
#37 = EDGE_LOOP ( 'NONE', ( #70, #71, #66, #67 ) ) ;
#38 = EDGE_LOOP ( 'NONE', ( #64, #62, #60, #61 ) ) ;
#39 = EDGE_LOOP ( 'NONE', ( #63, #68, #69, #65 ) ) ;
#40 = ORIENTED_EDGE ( 'NONE', *, *, #225, .T. ) ;
#41 = ORIENTED_EDGE ( 'NONE', *, *, #225, .F. ) ;
#42 = ORIENTED_EDGE ( 'NONE', *, *, #220, .T. ) ;
#43 = ORIENTED_EDGE ( 'NONE', *, *, #207, .T. ) ;
#44 = ORIENTED_EDGE ( 'NONE', *, *, #216, .T. ) ;
#45 = ORIENTED_EDGE ( 'NONE', *, *, #217, .T. ) ;
#46 = ORIENTED_EDGE ( 'NONE', *, *, #230, .F. ) ;
#47 = ORIENTED_EDGE ( 'NONE', *, *, #216, .F. ) ;
#48 = ORIENTED_EDGE ( 'NONE', *, *, #221, .T. ) ;
#49 = ORIENTED_EDGE ( 'NONE', *, *, #236, .F. ) ;
#50 = ORIENTED_EDGE ( 'NONE', *, *, #219, .F. ) ;
#51 = ORIENTED_EDGE ( 'NONE', *, *, #218, .F. ) ;
#52 = VERTEX_POINT ( 'NONE', #72 ) ;
#53 = VERTEX_POINT ( 'NONE', #73 ) ;
#54 = VERTEX_POINT ( 'NONE', #74 ) ;
#55 = VERTEX_POINT ( 'NONE', #75 ) ;
#56 = VERTEX_POINT ( 'NONE', #76 ) ;
#57 = VERTEX_POINT ( 'NONE', #77 ) ;
#58 = VERTEX_POINT ( 'NONE', #78 ) ;
#59 = VERTEX_POINT ( 'NONE', #79 ) ;
#60 = ORIENTED_EDGE ( 'NONE', *, *, #207, .F. ) ;
#61 = ORIENTED_EDGE ( 'NONE', *, *, #234, .T. ) ;
#62 = ORIENTED_EDGE ( 'NONE', *, *, #220, .F. ) ;
#63 = ORIENTED_EDGE ( 'NONE', *, *, #218, .T. ) ;
#64 = ORIENTED_EDGE ( 'NONE', *, *, #230, .T. ) ;
#65 = ORIENTED_EDGE ( 'NONE', *, *, #227, .T. ) ;
#66 = ORIENTED_EDGE ( 'NONE', *, *, #217, .F. ) ;
#67 = ORIENTED_EDGE ( 'NONE', *, *, #219, .T. ) ;
#68 = ORIENTED_EDGE ( 'NONE', *, *, #234, .F. ) ;
#69 = ORIENTED_EDGE ( 'NONE', *, *, #221, .F. ) ;
#70 = ORIENTED_EDGE ( 'NONE', *, *, #236, .T. ) ;
#71 = ORIENTED_EDGE ( 'NONE', *, *, #227, .F. ) ;
#72 = CARTESIAN_POINT ( 'NONE',  ( 9.999999999999998200, -5.000000000000000900, 500.0000000000000000 ) ) ;
#73 = CARTESIAN_POINT ( 'NONE',  ( -10.00000000000000000, 4.999999999999999100, -500.0000000000000000 ) ) ;
#74 = CARTESIAN_POINT ( 'NONE',  ( -10.00000000000000000, 4.999999999999999100, 500.0000000000000000 ) ) ;
#75 = CARTESIAN_POINT ( 'NONE',  ( 9.999999999999998200, 4.999999999999999100, 500.0000000000000000 ) ) ;
#76 = CARTESIAN_POINT ( 'NONE',  ( 9.999999999999998200, -5.000000000000000900, -500.0000000000000000 ) ) ;
#77 = CARTESIAN_POINT ( 'NONE',  ( -9.999999999999998200, -5.000000000000000900, -500.0000000000000000 ) ) ;
#78 = CARTESIAN_POINT ( 'NONE',  ( -9.999999999999998200, -5.000000000000000900, 500.0000000000000000 ) ) ;
#79 = CARTESIAN_POINT ( 'NONE',  ( 9.999999999999998200, 4.999999999999999100, -500.0000000000000000 ) ) ;
#80 = LINE ( 'NONE', #81, #169 ) ;
#81 = CARTESIAN_POINT ( 'NONE',  ( 9.999999999999998200, 4.999999999999999100, 500.0000000000000000 ) ) ;
#82 = DIRECTION ( 'NONE',  ( -0.0000000000000000000, 1.000000000000000000, -0.0000000000000000000 ) ) ;
#83 = PLANE ( 'NONE',  #161 ) ;
#84 = CARTESIAN_POINT ( 'NONE',  ( -10.00000000000000000, 4.999999999999999100, 500.0000000000000000 ) ) ;
#85 = DIRECTION ( 'NONE',  ( 0.0000000000000000000, -1.000000000000000000, 0.0000000000000000000 ) ) ;
#86 = DIRECTION ( 'NONE',  ( 0.0000000000000000000, -0.0000000000000000000, -1.000000000000000000 ) ) ;
#87 = PLANE ( 'NONE',  #195 ) ;
#88 = CARTESIAN_POINT ( 'NONE',  ( 0.0000000000000000000, 0.0000000000000000000, 500.0000000000000000 ) ) ;
#89 = DIRECTION ( 'NONE',  ( -0.0000000000000000000, 0.0000000000000000000, 1.000000000000000000 ) ) ;
#90 = DIRECTION ( 'NONE',  ( 1.000000000000000000, 0.0000000000000000000, 0.0000000000000000000 ) ) ;
#91 = PLANE ( 'NONE',  #172 ) ;
#92 = CARTESIAN_POINT ( 'NONE',  ( 0.0000000000000000000, 0.0000000000000000000, -500.0000000000000000 ) ) ;
#93 = DIRECTION ( 'NONE',  ( -0.0000000000000000000, 0.0000000000000000000, 1.000000000000000000 ) ) ;
#94 = DIRECTION ( 'NONE',  ( 1.000000000000000000, 0.0000000000000000000, 0.0000000000000000000 ) ) ;
#95 = LINE ( 'NONE', #96, #158 ) ;
#96 = CARTESIAN_POINT ( 'NONE',  ( -10.00000000000000000, 4.999999999999999100, -500.0000000000000000 ) ) ;
#97 = DIRECTION ( 'NONE',  ( -1.000000000000000000, -0.0000000000000000000, -0.0000000000000000000 ) ) ;
#98 = PLANE ( 'NONE',  #179 ) ;
#99 = CARTESIAN_POINT ( 'NONE',  ( -9.999999999999998200, -5.000000000000000900, 500.0000000000000000 ) ) ;
#100 = LINE ( 'NONE', #101, #184 ) ;
#101 = CARTESIAN_POINT ( 'NONE',  ( -10.00000000000000000, 4.999999999999999100, 500.0000000000000000 ) ) ;
#102 = DIRECTION ( 'NONE',  ( 1.734723475976807100E-016, -1.000000000000000000, 0.0000000000000000000 ) ) ;
#103 = LINE ( 'NONE', #106, #157 ) ;
#104 = LINE ( 'NONE', #105, #154 ) ;
#105 = CARTESIAN_POINT ( 'NONE',  ( 9.999999999999998200, 4.999999999999999100, 500.0000000000000000 ) ) ;
#106 = CARTESIAN_POINT ( 'NONE',  ( -10.00000000000000000, 4.999999999999999100, 500.0000000000000000 ) ) ;
#107 = DIRECTION ( 'NONE',  ( -0.0000000000000000000, -0.0000000000000000000, -1.000000000000000000 ) ) ;
#108 = CARTESIAN_POINT ( 'NONE',  ( -9.999999999999998200, -5.000000000000000900, -500.0000000000000000 ) ) ;
#109 = DIRECTION ( 'NONE',  ( 1.000000000000000000, 0.0000000000000000000, 0.0000000000000000000 ) ) ;
#110 = LINE ( 'NONE', #108, #173 ) ;
#111 = LINE ( 'NONE', #115, #193 ) ;
#112 = PLANE ( 'NONE',  #160 ) ;
#113 = DIRECTION ( 'NONE',  ( -0.0000000000000000000, -0.0000000000000000000, -1.000000000000000000 ) ) ;
#114 = DIRECTION ( 'NONE',  ( 0.0000000000000000000, -0.0000000000000000000, 1.000000000000000000 ) ) ;
#115 = CARTESIAN_POINT ( 'NONE',  ( -9.999999999999998200, -5.000000000000000900, 500.0000000000000000 ) ) ;
#116 = DIRECTION ( 'NONE',  ( 1.000000000000000000, 0.0000000000000000000, 0.0000000000000000000 ) ) ;
#117 = CARTESIAN_POINT ( 'NONE',  ( 9.999999999999998200, 4.999999999999999100, 500.0000000000000000 ) ) ;
#118 = DIRECTION ( 'NONE',  ( 0.0000000000000000000, 1.000000000000000000, 0.0000000000000000000 ) ) ;
#119 = DIRECTION ( 'NONE',  ( 0.0000000000000000000, 0.0000000000000000000, 1.000000000000000000 ) ) ;
#120 = DIRECTION ( 'NONE',  ( -1.000000000000000000, 0.0000000000000000000, 0.0000000000000000000 ) ) ;
#121 = LINE ( 'NONE', #122, #197 ) ;
#122 = CARTESIAN_POINT ( 'NONE',  ( -10.00000000000000000, 4.999999999999999100, 500.0000000000000000 ) ) ;
#123 = DIRECTION ( 'NONE',  ( -1.000000000000000000, -0.0000000000000000000, -0.0000000000000000000 ) ) ;
#124 = PLANE ( 'NONE',  #189 ) ;
#125 = LINE ( 'NONE', #126, #194 ) ;
#126 = CARTESIAN_POINT ( 'NONE',  ( -9.999999999999998200, -5.000000000000000900, 500.0000000000000000 ) ) ;
#127 = DIRECTION ( 'NONE',  ( -0.0000000000000000000, -0.0000000000000000000, -1.000000000000000000 ) ) ;
#128 = LINE ( 'NONE', #129, #181 ) ;
#129 = CARTESIAN_POINT ( 'NONE',  ( 9.999999999999998200, 4.999999999999999100, -500.0000000000000000 ) ) ;
#130 = DIRECTION ( 'NONE',  ( -0.0000000000000000000, 1.000000000000000000, -0.0000000000000000000 ) ) ;
#131 = LINE ( 'NONE', #132, #190 ) ;
#132 = CARTESIAN_POINT ( 'NONE',  ( 9.999999999999998200, -5.000000000000000900, 500.0000000000000000 ) ) ;
#133 = DIRECTION ( 'NONE',  ( -0.0000000000000000000, -0.0000000000000000000, -1.000000000000000000 ) ) ;
#134 = LINE ( 'NONE', #135, #159 ) ;
#135 = CARTESIAN_POINT ( 'NONE',  ( -10.00000000000000000, 4.999999999999999100, -500.0000000000000000 ) ) ;
#136 = DIRECTION ( 'NONE',  ( 1.734723475976807100E-016, -1.000000000000000000, 0.0000000000000000000 ) ) ;
#137 = CARTESIAN_POINT ( 'NONE',  ( -10.00000000000000000, 4.999999999999999100, 500.0000000000000000 ) ) ;
#138 = DIRECTION ( 'NONE',  ( 1.000000000000000000, 1.734723475976807100E-016, -0.0000000000000000000 ) ) ;
#139 =( GEOMETRIC_REPRESENTATION_CONTEXT ( 3 ) GLOBAL_UNCERTAINTY_ASSIGNED_CONTEXT ( ( #201 ) ) GLOBAL_UNIT_ASSIGNED_CONTEXT ( ( #140, #141, #142 ) ) REPRESENTATION_CONTEXT ( 'NONE', 'WORKASPACE' ) );
#140 =( LENGTH_UNIT ( ) NAMED_UNIT ( * ) SI_UNIT ( .MILLI., .METRE. ) );
#141 =( NAMED_UNIT ( * ) PLANE_ANGLE_UNIT ( ) SI_UNIT ( $, .RADIAN. ) );
#142 =( NAMED_UNIT ( * ) SI_UNIT ( $, .STERADIAN. ) SOLID_ANGLE_UNIT ( ) );
#143 = SHAPE_DEFINITION_REPRESENTATION ( #151, #200 ) ;
#144 = APPLICATION_PROTOCOL_DEFINITION ( 'international standard', 'config_control_design', 1994, #148 ) ;
#145 = CARTESIAN_POINT ( 'NONE',  ( 0.0000000000000000000, 0.0000000000000000000, 0.0000000000000000000 ) ) ;
#146 = DIRECTION ( 'NONE',  ( 0.0000000000000000000, 0.0000000000000000000, 1.000000000000000000 ) ) ;
#147 = DIRECTION ( 'NONE',  ( 1.000000000000000000, 0.0000000000000000000, 0.0000000000000000000 ) ) ;
#148 = APPLICATION_CONTEXT ( 'configuration controlled 3d designs of mechanical parts and assemblies' ) ;
#149 = APPLICATION_CONTEXT ( 'configuration controlled 3d designs of mechanical parts and assemblies' ) ;
#150 = MANIFOLD_SOLID_BREP ( 'ÎÞ½ - µoµ1', #175 ) ;
#151 = PRODUCT_DEFINITION_SHAPE ( 'NONE', 'NONE',  #228 ) ;
#152 = DESIGN_CONTEXT ( 'detailed design', #149, 'design' ) ;
#153 = APPROVAL_PERSON_ORGANIZATION ( #29, #214, #31 ) ;
#154 = VECTOR ( 'NONE', #113, 1000.000000000000000 ) ;
#155 = FACE_OUTER_BOUND ( 'NONE', #34, .T. ) ;
#156 = COORDINATED_UNIVERSAL_TIME_OFFSET ( 9, 0, .AHEAD. ) ;
#157 = VECTOR ( 'NONE', #107, 1000.000000000000000 ) ;
#158 = VECTOR ( 'NONE', #97, 1000.000000000000000 ) ;
#159 = VECTOR ( 'NONE', #136, 1000.000000000000000 ) ;
#160 = AXIS2_PLACEMENT_3D ( 'NONE', #117, #120, #119 ) ;
#161 = AXIS2_PLACEMENT_3D ( 'NONE', #84, #85, #86 ) ;
#162 = FACE_OUTER_BOUND ( 'NONE', #35, .T. ) ;
#163 = CC_DESIGN_APPROVAL ( #204, ( #174 ) ) ;
#164 = CC_DESIGN_SECURITY_CLASSIFICATION ( #171, ( #174 ) ) ;
#165 = CALENDAR_DATE ( 2015, 11, 8 ) ;
#166 = COORDINATED_UNIVERSAL_TIME_OFFSET ( 9, 0, .AHEAD. ) ;
#167 = FACE_OUTER_BOUND ( 'NONE', #38, .T. ) ;
#168 = FACE_OUTER_BOUND ( 'NONE', #37, .T. ) ;
#169 = VECTOR ( 'NONE', #82, 1000.000000000000000 ) ;
#170 = APPROVAL_PERSON_ORGANIZATION ( #6, #222, #8 ) ;
#171 = SECURITY_CLASSIFICATION ( '', '', #24 ) ;
#172 = AXIS2_PLACEMENT_3D ( 'NONE', #92, #93, #94 ) ;
#173 = VECTOR ( 'NONE', #109, 1000.000000000000000 ) ;
#174 = PRODUCT_DEFINITION_FORMATION_WITH_SPECIFIED_SOURCE ( 'ANY', '', #1, .NOT_KNOWN. ) ;
#175 = CLOSED_SHELL ( 'NONE', ( #237, #223, #224, #211, #212, #215 ) ) ;
#176 = ORGANIZATION ( 'UNSPECIFIED', 'UNSPECIFIED', '' ) ;
#177 = CC_DESIGN_APPROVAL ( #214, ( #171 ) ) ;
#178 = COORDINATED_UNIVERSAL_TIME_OFFSET ( 9, 0, .AHEAD. ) ;
#179 = AXIS2_PLACEMENT_3D ( 'NONE', #99, #118, #114 ) ;
#180 = AXIS2_PLACEMENT_3D ( 'NONE', #145, #146, #147 ) ;
#181 = VECTOR ( 'NONE', #130, 1000.000000000000000 ) ;
#182 = CALENDAR_DATE ( 2015, 11, 8 ) ;
#183 = CALENDAR_DATE ( 2015, 11, 8 ) ;
#184 = VECTOR ( 'NONE', #102, 1000.000000000000000 ) ;
#185 = CC_DESIGN_APPROVAL ( #222, ( #228 ) ) ;
#186 = FACE_OUTER_BOUND ( 'NONE', #36, .T. ) ;
#187 = CALENDAR_DATE ( 2015, 11, 8 ) ;
#188 = COORDINATED_UNIVERSAL_TIME_OFFSET ( 9, 0, .AHEAD. ) ;
#189 = AXIS2_PLACEMENT_3D ( 'NONE', #137, #138, #199 ) ;
#190 = VECTOR ( 'NONE', #133, 1000.000000000000000 ) ;
#191 = CALENDAR_DATE ( 2015, 11, 8 ) ;
#192 = COORDINATED_UNIVERSAL_TIME_OFFSET ( 9, 0, .AHEAD. ) ;
#193 = VECTOR ( 'NONE', #116, 1000.000000000000000 ) ;
#194 = VECTOR ( 'NONE', #127, 1000.000000000000000 ) ;
#195 = AXIS2_PLACEMENT_3D ( 'NONE', #88, #89, #90 ) ;
#196 = FACE_OUTER_BOUND ( 'NONE', #39, .T. ) ;
#197 = VECTOR ( 'NONE', #123, 1000.000000000000000 ) ;
#198 = APPROVAL_PERSON_ORGANIZATION ( #15, #204, #17 ) ;
#199 = DIRECTION ( 'NONE',  ( -1.734723475976807100E-016, 1.000000000000000000, 0.0000000000000000000 ) ) ;
#200 = ADVANCED_BREP_SHAPE_REPRESENTATION ( 'sone3D', ( #150, #180 ), #139 ) ;
#201 = UNCERTAINTY_MEASURE_WITH_UNIT (LENGTH_MEASURE( 1.000000000000000100E-005 ), #140, 'distance_accuracy_value', 'NONE');
#202 = PERSON ( 'UNSPECIFIED', 'UNSPECIFIED', 'UNSPECIFIED', ('UNSPECIFIED'), ('UNSPECIFIED'), ('UNSPECIFIED') ) ;
#203 = LOCAL_TIME ( 19, 21, 49.00000000000000000, #156 ) ;
#204 = APPROVAL ( #16, 'UNSPECIFIED' ) ;
#205 = PRODUCT_RELATED_PRODUCT_CATEGORY ( 'detail', '', ( #1 ) ) ;
#206 = LOCAL_TIME ( 19, 21, 49.00000000000000000, #192 ) ;
#207 = EDGE_CURVE ( 'NONE', #52, #55, #80, .T. ) ;
#208 = CC_DESIGN_DATE_AND_TIME_ASSIGNMENT ( #13, #14, ( #228 ) ) ;
#209 = LOCAL_TIME ( 19, 21, 49.00000000000000000, #178 ) ;
#210 = CC_DESIGN_PERSON_AND_ORGANIZATION_ASSIGNMENT ( #25, #26, ( #171 ) ) ;
#211 = ADVANCED_FACE ( 'NONE', ( #186 ), #83, .F. ) ;
#212 = ADVANCED_FACE ( 'NONE', ( #155 ), #87, .T. ) ;
#213 = CC_DESIGN_DATE_AND_TIME_ASSIGNMENT ( #27, #28, ( #171 ) ) ;
#214 = APPROVAL ( #30, 'UNSPECIFIED' ) ;
#215 = ADVANCED_FACE ( 'NONE', ( #162 ), #91, .F. ) ;
#216 = EDGE_CURVE ( 'NONE', #59, #53, #95, .T. ) ;
#217 = EDGE_CURVE ( 'NONE', #54, #58, #100, .T. ) ;
#218 = EDGE_CURVE ( 'NONE', #57, #56, #110, .T. ) ;
#219 = EDGE_CURVE ( 'NONE', #54, #53, #103, .T. ) ;
#220 = EDGE_CURVE ( 'NONE', #55, #59, #104, .T. ) ;
#221 = EDGE_CURVE ( 'NONE', #58, #52, #111, .T. ) ;
#222 = APPROVAL ( #7, 'UNSPECIFIED' ) ;
#223 = ADVANCED_FACE ( 'NONE', ( #196 ), #98, .F. ) ;
#224 = ADVANCED_FACE ( 'NONE', ( #167 ), #112, .F. ) ;
#225 = EDGE_CURVE ( 'NONE', #55, #54, #121, .T. ) ;
#226 = CC_DESIGN_PERSON_AND_ORGANIZATION_ASSIGNMENT ( #3, #4, ( #1 ) ) ;
#227 = EDGE_CURVE ( 'NONE', #58, #57, #125, .T. ) ;
#228 = PRODUCT_DEFINITION ( 'UNKNOWN', '', #174, #152 ) ;
#229 = CC_DESIGN_PERSON_AND_ORGANIZATION_ASSIGNMENT ( #22, #23, ( #174 ) ) ;
#230 = EDGE_CURVE ( 'NONE', #56, #59, #128, .T. ) ;
#231 = CC_DESIGN_PERSON_AND_ORGANIZATION_ASSIGNMENT ( #11, #12, ( #228 ) ) ;
#232 = CC_DESIGN_PERSON_AND_ORGANIZATION_ASSIGNMENT ( #20, #21, ( #174 ) ) ;
#233 = LOCAL_TIME ( 19, 21, 49.00000000000000000, #188 ) ;
#234 = EDGE_CURVE ( 'NONE', #52, #56, #131, .T. ) ;
#235 = LOCAL_TIME ( 19, 21, 49.00000000000000000, #166 ) ;
#236 = EDGE_CURVE ( 'NONE', #53, #57, #134, .T. ) ;
#237 = ADVANCED_FACE ( 'NONE', ( #168 ), #124, .F. ) ;
ENDSEC;
END-ISO-10303-21;
